Song name
# A B C D E F G H I J K L M N O P Q R S T U V W X Y Z

Everyday Sunday - Just A Story tab

"Just A Story"
-by Everyday Sunday
-tabbed by Naynaypo

E Standard tuning

*If you're playing distorted, you can just change the chords to bar chords, if it sounds better.


-----Intro/Verse-----


Picking
e-----------------------------------|
B---------11------------11----------|
G--10-10----10-10---10----10-10-----|
D-----------------------------------|
A-----------------------------------|
E-----------------------------------|

Chords
e--6---6---8----6------------|
B--6---8---8----8------------|
G--7---8---8----8------------|
D--8---8---10---8------------|
A--8---6---10---6------------|
E--6-------8-----------------|


-----Chorus-----


Picking
e-----------------------------------------|
B--11--11--10--10---8---8--11--11---------|
G----10--10--10--10--10--10--10--10-------|
D-----------------------------------------|
A-----------------------------------------|
E-----------------------------------------|

Chords
e--6---8----6---6--------------|
B--6---8----8---8--------------|
G--7---8----8---8--------------|
D--8---10---8---8--------------|
A--8---10---6---6--------------|
E--6---8-----------------------|


Have a splendid day playing this simple but awesome song! Email me at
Kalvin@koetting.org if you think the tab is wrong, have any comments, any safety 
concerns, or just have no friends!
Peace out!
Tap to rate this tab
 
# A B C D E F G H I J K L M N O P Q R S T U V W X Y Z