Song name
# A B C D E F G H I J K L M N O P Q R S T U V W X Y Z

Everyday Sunday - Find Me Tonight tab

-------------------------------------------------------------------------------
			     Find Me Tonight - Everyday Sunday
-------------------------------------------------------------------------------
Tabbed by: Josh
Email: joshiscrippled@yahoo.com

Tuning: Standard


I love this song, it's a great song, and it's fun to play. This has been updated,
I made the solo easier, and CORRECT! haha and the chorus too, plus I labeled rythm
and lead this time to make it a little easier

Intro/Verse

Rhythm
e|-4p2---2-------------------------------------------------------------------|
B|-----2---2-----------------------------------------------------------------|
G|---------------------------------------------------------------------------|
D|---------------------------------------------------------------------------|
A|---------------------------------------------------------------------------|
E|---------------------------------------------------------------------------|

Chorus
Both
e|---------------------------------------------------------------------------|
B|---------------------------------------------------------------------------|
G|--------------4-------------8----------4-----------------------------------|
D|-4------------4-------------8----------4-----------------------------------|
A|-4------------2-------------6----------2-----------------------------------|
E|-2-------------------------------------------------------------------------|

Verse 2
Rhythm
e|-4p2---2-------------------------------------------------------------------|
B|-----2---2-----------------------------------------------------------------|
G|---------------------------------------------------------------------------|
D|---------------------------------------------------------------------------|
A|---------------------------------------------------------------------------|
E|---------------------------------------------------------------------------|

this is played over that same riff, read this slow because it can be confusing
lead
e|-1h2-4-1h2-4p2-1-1h2-4-1h2-4p2-1-1h2-4-------------------------------------|
B|---------------------------------------------------------------------------|
G|---------------------------------------------------------------------------|
D|---------------------------------------------------------------------------|
A|---------------------------------------------------------------------------|
E|---------------------------------------------------------------------------|

Chorus(both


Bridge(using wah pedal)
lead and on the second time around rhythm jumps in to match
e|---------------------------------------------------------------------------|
B|-11p9-------------------11p9-----------------------------------------------|
G|------11p10-10-11-10---------11p10-10-11-10-11/13-11/13--------------------|
D|---------------------11----------------------------------------------------|
A|---------------------------------------------------------------------------|
E|---------------------------------------------------------------------------|

e|---------------------------------------------------------------------------|
B|-11p9----------------------------------------------------------------------|
G|------11p10-10-11-10----------11p10-11-10-11p10-11/13-11/13----------------|
D|---------------------11--11h13---------------------------------------------|
A|---------------------------------------------------------------------------|
E|---------------------------------------------------------------------------|

Here he plays chords on acoustic, play with it some, try to stay around that same general area though

    G        Em
        So find me, I don't want to be roaming so...

After that...

Chorus(both)

Verse 2(lead)


| /  slide up
| \  slide down
| h  hammer-on
| p  pull-off
| ~  vibrato
| +  harmonic
| x  Mute note
===============================================================================
Tap to rate this tab
# A B C D E F G H I J K L M N O P Q R S T U V W X Y Z