Song name
# A B C D E F G H I J K L M N O P Q R S T U V W X Y Z

Everyday Sunday - Lets Go Back tab

yep, another everyday sunday tab. this song is pretty neat. it sounds good too
without being too difficult. hope you guys enjoy it.

tune down 1/2 step

Intro 1

Guitar 1

e|-0--0--0~~--0--0--0~~--0--0--0~~--0--0--0--0-0-0-0-0-0-0-0-|
B|-5--7--9~~--2--4--0~~--5--7--9~~-10--9-10-1212121212121212-|
G|-----------------------------------------------------------|
D|-----------------------------------------------------------|
A|-----------------------------------------------------------|
E|-----------------------------------------------------------|


Intro 2

Guitar 1

e|-7-0-0-5-0-0-4-0-7-0-0--0-0-4-0-2-0-0-4-0-0-2-0-2-0-0-4-0-0-2-0-|
B|----------------------------------------------------------------|
G|----------------------------------------------------------------|
D|----------------------------------------------------------------|
A|----------------------------------------------------------------|
E|----------------------------------------------------------------| x2

Guitar 2

e|---------------------------------------------------------|
B|---------------------------------------------------------|
G|-9-9----9-9----9-9----9-9--------------------------------|
D|-9-9----9-9----9-9----9-9----7-7----7-7----7-7----7-7----|
A|-7-7----7-7----7-7----7-7----7-7----7-7----7-7----7-7----|
E|-----------------------------5-5----5-5----5-5----5-5----|x2

Verse 1

Guitar 2

e|---------------------------------|
B|---------------------------------|
G|-----------------9-9-9-9-9-9-9-9-|
D|-7-7-7-7-7-7-7-7-9-9-9-9-9-9-9-9-|
A|-7-7-7-7-7-7-7-7-7-7-7-7-7-7-7-7-|
E|-5-5-5-5-5-5-5-5-----------------|

PM |------------------------------|

e|-----------------------------------------------|
B|-----------------------------------------------|
G|-----------------8-8-8-8-8-8-8-8-8-8-8-8--8--8-|
D|-7-7-7-7-7-7-7-7-9-9-9-9-9-9-9-9-9-9-9-9--9--9-|
A|-7-7-7-7-7-7-7-7-6-6-6-6-6-6-6-6-6-6-6-6--6--6-|
E|-5-5-5-5-5-5-5-5-------------------------------| x2

PM |------------------------------|


Chorus

repeat back to intro 2, but do it twice.


Verse 2

same as verse 1


Bridge

Guitar 2

e|---------------------------------|
B|---------------------------------|
G|-----------------9-9-9-9-9-9-9-9-|
D|-7-7-7-7-7-7-7-7-9-9-9-9-9-9-9-9-|
A|-7-7-7-7-7-7-7-7-7-7-7-7-7-7-7-7-|
E|-5-5-5-5-5-5-5-5-----------------|

PM |------------------------------|

e|---------------------------------|
B|---------------------------------|
G|-----------------8-8-8-8-8-8-8-8-|
D|-7-7-7-7-7-7-7-7-9-9-9-9-9-9-9-9-|
A|-7-7-7-7-7-7-7-7-6-6-6-6-6-6-6-6-|
E|-5-5-5-5-5-5-5-5-----------------|

PM |------------------------------|

e|---------------------------------|
B|---------------------------------|
G|-----------------9~~~~~----------|
D|-7~~~~~----------9~~~~~----------|
A|-7~~~~~----------7~~~~~----------|
E|-5~~~~~--------------------------|

Last Chorus

play this

e|---------------------------------|
B|---------------------------------|
G|-----------------8-8-8-8-8-8-8-8-|
D|-7-7-7-7-7-7-7-7-9-9-9-9-9-9-9-9-|
A|-7-7-7-7-7-7-7-7-6-6-6-6-6-6-6-6-|
E|-5-5-5-5-5-5-5-5-----------------|

then play chorus again without the x2


Ending

Guitar 1

e|-0--0--0~~--0--0--0--0~~--0--0--0~~--0--0--0~~~~~----------|
B|-5--7--9~~-12-10-14-12~~--5--7--9~~-10--9--7~~~~~----------|
G|-----------------------------------------------------------|
D|-----------------------------------------------------------|
A|-----------------------------------------------------------|
E|-----------------------------------------------------------|
Tap to rate this tab
# A B C D E F G H I J K L M N O P Q R S T U V W X Y Z