Everyone Dies In Utah - Say Goodbye Like You Mean It tab

tuning: drop D (DADGBe)
sorry I only have 1 guitar T.T

-INTRO 0:06 0:49
|------------------------------------------|--------------------------------------------------|
|------------------------------------------|--------------------------------------------------|
|-----3---------3-----------2---------2----|-2------------------------------------------------|
|---1---1-----1---1-------3---3-----3---3--|-3------------------------------------------------|
|-2---------2------2----1---------1--------|-1------------------------------------------------|
|------------------------------------------|--------------------------------------------------|

------------synth part----------------------(0:50-1:18)

primera parte(1:18-1:41)
|--------------------------------------------------------------------------------------------|
|--------------------------------------------------------------------------------------------|
|------9-8-8-8-8-8-8-8----------------8--8-8-8-8-8--9--9-9-9-9-9-----------------------------|
|------9-8-x-x-x-x-x-x---7h8p7/5------x--x-x-x-x-x--x--x-x-x-x-x-----------------------------|
|------7-6-6-6-6-6-6-6----------------6--6-6-6-6-6--7--7-7-7-7-7-----------------------------|
|-0000---------------------------------------------------------------------------------------|
  ****
segunda parte(1:41-2:03)
|--------------------------------------------------------------------------------------------|
|--------------------------------------------------------------------------------------------|
|--------------------------------------------------------------------------------------------|
|----13p12-13p12-15p12-13p12-12p10-----16p14-16p14---17p16-16p14-14p13-----------------------|
|--------------------------------------------------------------------------------------------|
|000------------0-------------------00------------00-----------------------------------------|
 ***            *                   **            **

Repeat "primera parte" (2:05-2:27)

Repeat "seguda parte" (2:27-2:50)

repeat "primera parte" (2:50-3:13)

BREAKDOWW!! :D (3:13 - 3:37)
|--------------------------------------------------------------------------------------------|
|--------------------------------------------------------------------------------------------|
|-4-4-4-4-4--4-4--4-4-4-4-4--4-4----5-5-5-5-5--5-5--5-5-5-5--5-5-----4-4-4-4-4--4-4----------|
|-4-4-4-4-4--4-4--4-4-4-4-4--4-4----5-5-5-5-5--5-5--5-5-5-5--5-5-----4-4-4-4-4--4-4----------|
|-2-2-2-2-2--2-2--2-2-2-2-2--2-2----3-3-3-3-3--3-3--3-3-3-3--3-3-----2-2-2-2-2--2-2----------|
|--------------------------------------------------------------------------------------------|

|--------------------------------------------------------------------------------------------|
|--------------------------------------------------------------------------------------------|
|--6-6-6-6-6--6-6---6-6--6-6--6-6---4-4---5~-------------------------------------------------|
|--6-6-6-6-6--6-6---6-6--6-6--6-6---4-4---5~-------------------------------------------------|
|--4-4-4-4-4--4-4---4-4--4-4--4-4---2-2---3~-------------------------------------------------|
|-----------------------------------0--------------------------------------------------------|

repeat "intro" 

add:drr_55555@hotmail.com
http://www.myspace.com/everyonediesinutah
Tap to rate this tab
 
# A B C D E F G H I J K L M N O P Q R S T U V W X Y Z