Everyone Dies In Utah - Say Goodbye Like You Mean It tab

Say Goodbye Like You Mean It
Everyone Dies In Utah

Tuning: Drop D



Intro: Clean
e|----------------------------------------------------------------------------------|   |---|
B|----------------------------------------------------------------------------------|   |---|
G|--------4-----------4---------1-------1---------4-------4---------1-------1-------|   |-1-|
D|-----2-----2-----2---2------2---2---2--2------2---2---2--2------2---2---2--2------| X3|-2-|
A|---4----------4-------4---0-------0-----0---4-------4-----4---0-------0-----0-----|   |-0-|
D|----------------------------------------------------------------------------------|   |---|
                                                              Strum Once After 3rd Repeat ^



Riff 1
e|--------------------------------------------------------------------------------|
B|--------------------------------------------------------------------------------|
G|------9-8~------------99999998-8888888--------9-8~------------99999998-8888888--|
D|------9-8~------------xxxxxxxx-xxxxxxx--------9-8~------------xxxxxxxx-xxxxxxx--| X2
A|------7-6~------------77777776-6666666--------7-6~------------77777776-6666666--|
D|-0000--0----/Slide/----------------------0000--0----/Slide/---------------------|
   ....  .                                 ....  .



Riff 2
e|--------------------------------------------------------------------------------|
B|--------------------------------------------------------------------------------|
G|----9-8-9-8----9-8-9-8-9-8-------11-9-11-9-----11-9-11-9-11-9-------------------|
D|------------9~-------------9~--------------9~-----------------9~----------------| X4
A|--------------------------------------------------------------------------------|
D|-00---------------------------00------------------------------------------------|
   ..                           ..


*Repeat Riff 1

*Repeat Riff 2

*Repeat Riff 1


Riff 3(Breakdown)
e|-----------------------------------------------------------------------------------------------|
B|-----------------------------------------------------------------------------------------------|
G|-----------------------------------------------------------------------------------------------|
D|-----------------------------------------------------------------------------------------------|
A|00000-00---00000-00---77777-77---77777-77---00000-00---66666-66---77777-77---77-77-77-77-7777-0|
D|00000-00---00000-00---77777-77---77777-77---00000-00---66666-66---77777-77---77-77-77-77-7777-0|



*Repeat intro Until The End




[DudeDontDrinkthat]
Tap to rate this tab
 
# A B C D E F G H I J K L M N O P Q R S T U V W X Y Z