Song name
# A B C D E F G H I J K L M N O P Q R S T U V W X Y Z

Everything But The Girl - I Dont Want To Talk About It tab

	  I DON'T WANT TO TALK ABOUT IT - Everything But The Girl

INTRO:
e|-------------------------------------------------------------------------|
B|-5---5---5-----5---5---5-----5---5---5-----5---5---5---------------------|
G|--4---4---4-----4---4---4-----4---4---4-----4---4---4--------------------|
D|---6---6---------6---6---------6---6---------6---6-----------------------|
A|-------------------------------------------------------------------------|
E|-------------------------------------------------------------------------|

e|-------------------------------------------------------------------------|
B|-4---4---4-----5---5---5-----4---4---4-----5---5---5---------------------|
G|--4---4---4-----4---4---4-----4---4---4-----4---4---4--------------------|
D|---4---4---------6---6---------4---4---------6---6-----------------------|
A|-------------------------------------------------------------------------|
E|-------------------------------------------------------------------------|


VERSE 1:
e|---------------7---4-----------------------------------------------------|
B|-5---5---5------5---5---5-----5---5---5-----5---5---5--------------------|
G|--4---4---4------4---4---4-----4---4---4-----4---4---4-------------------|
D|---6---6------------------------6---6---------6---6----------------------|
A|-------------------------------------------------------------------------|
E|-------------------------------------------------------------------------|
  I can tell by your eyes that you've prob'bly been cryin' forever

e|-------------------------------------------------------------------------|
B|-4---4---4-----5---5---5-----4---4---4-----4---4---4---------------------|
G|--4---4---4-----4---4---4-----4---4---4-----4---4---4--------------------|
D|---4---4---------6---6---------4---4---------4---4-----------------------|
A|-------------------------------------------------------------------------|
E|-------------------------------------------------------------------------|

e|---------------4---------------------------------------------------------|
B|-5---5---5------5---5---5-----5---5---5-----5---5---5--------------------|
G|--4---4---4------4---4---4-----4---4---4-----4---4---4-------------------|
D|---6---6--------------6---6-----6---6---------6---6----------------------|
A|-------------------------------------------------------------------------|
E|-------------------------------------------------------------------------|
  And the stars in the sky don't mean nothin' to you, they're a mirror.

e|-------------------------------------------------------------------------|
B|-4---4---4-----5---5---5-----4---4---4-----4---4---4---------------------|
G|--4---4---4-----4---4---4-----4---4---4-----4---4---4--------------------|
D|---4---4---------6---6---------4---4---------4---4-----------------------|
A|-------------------------------------------------------------------------|
E|-------------------------------------------------------------------------|


CHORUS:
e|-4---4---4---4---4---4-----6---6---6---6---6---6-------------------------|
B|--5---5---5---5---5---5-----7---7---7---7---7---7------------------------|
G|---4---4-------4---4---------6---6-------6---6---------------------------|
D|-------------------------------------------------------------------------|
A|-------------------------------------------------------------------------|
E|-------------------------------------------------------------------------|
        I Don't Want to      talk about it

e|-------------------------------------------------------------------------|
B|-4---4---4-----3---3---3-----4---4---4---4---4---4-----------------------|
G|--4---4---4-----3---3---3-----4---4---4---4---4---4----------------------|
D|---4---4---------3---3---------4---4-------4---4-------------------------|
A|-------------------------------------------------------------------------|
E|-------------------------------------------------------------------------|
       How you   broke my      heart

e|-4---4---4---4---4---4-----6---6---6---6---6---6--5----------------------|
B|--5---5---5---5---5---5-----7---7---7---7---7----------------------------|
G|---4---4-------4---4---------6---6-------6---6---------------------------|
D|-------------------------------------------------------------------------|
A|-------------------------------------------------------------------------|
E|-------------------------------------------------------------------------|
       If I stay here just a little bit longer

e|-4---4---4---4---4---4-----6---6---6---6---------------------------------|
B|--5---5---5---5---5---5-----7---7---7------------------------------------|
G|---4---4-------4---4---------6---6---------------------------------------|
D|-------------------------------------------------------------------------|
A|-------------------------------------------------------------------------|
E|-------------------------------------------------------------------------|
       If I stay here won't you listen

e|-------------------------------------------------------------------------|
B|-------5---5---5---5---5---5---5---5---5---5---5---5---------------------|
G|--------4---4---4---4---4---4---4---4---4---4---4---4--------------------|
D|---------6---6-------6---6-------6---6-------6---6-----------------------|
A|-------------------------------------------------------------------------|
E|-------------------------------------------------------------------------|
   To my heart				      Whoa    My

e|-------------------------------------------------------------------------|
B|-4---4---4---5---5---5---4---4---4---4---4---4---------------------------|
G|--4---4---4---4---4---4---4---4---4---4---4---4--------------------------|
D|---4---4-------6---6-------4---4-------4---4-----------------------------|
A|-------------------------------------------------------------------------|
E|-------------------------------------------------------------------------|
   Heart




I can tell by your eyes
That you've probably been cryin' forever
And the stars in the sky don't mean nothin' to you
They're a mirror

I don't want to talk about it
How you broke my heart
If I stay here just a little bit longer
If I stay here, won't you listen to my heart?

If I stand all alone
Will the shadow hide the color of my heart?
Blue for the tears, black for the night's fears
The stars in the sky don't mean nothin' to you
They're a mirror

I don't want to talk about it
How you broke my heart
If I stay here just a little bit longer
If I stay here, won't you listen to my heart?

[Solo with verse notes played in the background]

I don't want to talk about it
How you broke this ol' heart
If I stay here just a little bit longer
If I stay here, won't you listen to my heart?
My heart, whoa, heart
Tap to rate this tab
# A B C D E F G H I J K L M N O P Q R S T U V W X Y Z