Song name
# A B C D E F G H I J K L M N O P Q R S T U V W X Y Z

Everything But The Girl - Missing chords

Highlighted       Show chord diagrams
Missing - Everything but the Girl

Standard tuning

INTRO and VERSES:

I step off the train I'm walking down your street again

    Am      Am7      Em      Em7
 e|-0-0-0-0-0-0-0-0--0-0-0-0-0-0-0-0-|
 B|-1-1-1-1-1-1-1-1--0-0-0-0-0-0-0-0-|
 G|-2-2-2-2-0-0-0-0--0-0-0-0-0-0-0-0-|
 D|-2-2-2-2-2-2-2-2--2-2-2-2-0-0-0-0-|
 A|-0-0-0-0-0-0-0-0--2-2-2-2-2-2-2-2-|
 E|------------------0-0-0-0-0-0-0-0-|


You can play just Am and Em or play Am and throw in some Am7, the same with Em and Em7.


CHORUS:

And I miss you              Like the deserts miss the rain

               Am        F         G         Dm
            e|-0-0-0-0---1-1-1-1---3-3-3-3---1-1-1-1--|
            B|-1-1-1-1---1-1-1-1---3-3-3-3---3-3-3-3--|
            G|-2-2-2-2---2-2-2-2---0-0-0-0---2-2-2-2--|
            D|-2-2-2-2---3-3-3-3---0-0-0-0---0-0-0-0--|
            A|-0-0-0-0---3-3-3-3---2-2-2-2------------|
            E|-----------1-1-1-1---3-3-3-3------------|
Tap to rate this tab
 
# A B C D E F G H I J K L M N O P Q R S T U V W X Y Z