Song name
# A B C D E F G H I J K L M N O P Q R S T U V W X Y Z

Everything Everything - Choice Mountain tab

-------------------------------------------------------------------------------
                             Choice Mountain - Everything Everything
-------------------------------------------------------------------------------
Tabbed by: PendulumMan24
Tuning: Standard

INTRO
e|-19---16---14---14---16-----|
B|---19---16---14---14---16---|
G|----------------------------| x4
D|----------------------------|
A|----------------------------|
E|----------------------------|

(PALM MUTE)
e|---------------------------------------------------------------------------------|  }
B|---------------------------------------------------------------------------------|  }
G|---------------------------------------------------------------------------------|  }
D|13-13-13-13-13-13-16-------------------------------------------------------------|  }
A|---------------------14--14-14-14-14-14-14-11-11-11-11-11-11-11-10-13-13-14-13---|  }
E|---------------------------------------------------------------------------------|  }
                                                                                      }x4
e|----------------------------------------------------|                               }
B|----------------------------------------------------|                               }
G|----------------------------------------------------|                               } 
D|----------------------------------------------------|                               }
A|-14-14-14-14-14-14-14-14-13-13-13-13-13-13-13-13----|                               }
E|----------------------------------------------------|                               }

VERSE
e|---------------------------------------------------------------------------|
B|---------------------------------------------------------------------------|
G|---------------------------------------------------------------------------|
D|---------------------------------------------------------------------------|
A|---------------------------------------------------------------------------|
E|---------------------------------------------------------------------------|

e|---------------------------------------------------------------------------|
B|---------------------------------------------------------------------------|
G|---------------------------------------------------------------------------|
D|---------------------------------------------------------------------------|
A|---------------------------------------------------------------------------|
E|---------------------------------------------------------------------------|

e|---------------------------------------------------------------------------|  }
B|---------------------------------------------------------------------------|  }
G|---------------------------------------------------------------------------|  }
D|---------------------------------------------------------------------------|  }
A|-13-13-13-13-13-13-13-13-13-13-13-13-13-13-13-13-14-14-14-14-14-14-14-14---|  }
E|---------------------------------------------------------------------------|  }
                                                                                }x2
e|-------------------------|                                                    }
B|-------------------------|                                                    }
G|-------------------------|                                                    }
D|-------------------------|                                                    }
A|-13-13-13-13-13-13-13-13-|                                                    }
E|-------------------------|                                                    }
  
PRE CHORUS
(PALM MUTE)
e|---------------------------------------------------------------------------------|  }
B|---------------------------------------------------------------------------------|  }
G|---------------------------------------------------------------------------------|  }
D|13-13-13-13-13-13-16-------------------------------------------------------------|  }
A|---------------------14--14-14-14-14-14-14-11-11-11-11-11-11-11-10-13-13-14-13---|  }
E|---------------------------------------------------------------------------------|  }
                                                                                      }x2
e|----------------------------------------------------|                               }
B|----------------------------------------------------|                               }
G|----------------------------------------------------|                               } 
D|----------------------------------------------------|                               }
A|-14-14-14-14-14-14-14-14-13-13-13-13-13-13-13-13----|                               }
E|----------------------------------------------------|                               }


CHORUS
e|-19---16---14---14---16-----|
B|---19---16---14---14---16---|
G|----------------------------| x9
D|----------------------------|
A|----------------------------|
E|----------------------------|

VERSE 2
(PALM MUTE)
e|---------------------------------------------------------------------------------|  }
B|---------------------------------------------------------------------------------|  }
G|---------------------------------------------------------------------------------|  }
D|13-13-13-13-13-13-16-------------------------------------------------------------|  }
A|---------------------14--------------------11-11-11-11-11-11-11-10---------------|  }
E|---------------------------------------------------------------------------------|  }
                                                                                      }x2
e|----------------------------------------------------|                               }
B|----------------------------------------------------|                               }
G|----------------------------------------------------|                               } 
D|----------------------------------------------------|                               }
A|-14-14-14-14-14-14-14-14-13-13-13-13-13-13-13-13----|                               }
E|----------------------------------------------------|                               }

e|---------------------------------------------------------------------------|
B|---------------------------------------------------------------------------|
G|---------------------------------------------------------------------------|
D|---------------------------------------------------------------------------|
A|---------------------------------------------------------------------------|
E|---------------------------------------------------------------------------|

e|---------------------------------------------------------------------------|
B|---------------------------------------------------------------------------|
G|---------------------------------------------------------------------------|
D|---------------------------------------------------------------------------|
A|---------------------------------------------------------------------------|
E|---------------------------------------------------------------------------|

e|---------------------------------------------------------------------------|  }
B|---------------------------------------------------------------------------|  }
G|---------------------------------------------------------------------------|  }
D|---------------------------------------------------------------------------|  }
A|-13-13-13-13-13-13-13-13-13-13-13-13-13-13-13-13-14-14-14-14-14-14-14-14---|  }
E|---------------------------------------------------------------------------|  }
                                                                                }x2
e|-------------------------|                                                    }
B|-------------------------|                                                    }
G|-------------------------|                                                    }
D|-------------------------|                                                    }
A|-13-13-13-13-13-13-13-13-|                                                    }
E|-------------------------|                                                    }
  
(PALM MUTE)
e|---------------------------------------------------------------------------------|  }
B|---------------------------------------------------------------------------------|  }
G|---------------------------------------------------------------------------------|  }
D|13-13-13-13-13-13-16-------------------------------------------------------------|  }
A|---------------------14--14-14-14-14-14-14-11-11-11-11-11-11-11-10-13-13-14-13---|  }
E|---------------------------------------------------------------------------------|  }
                                                                                      }x2
e|----------------------------------------------------|                               }
B|----------------------------------------------------|                               }
G|----------------------------------------------------|                               } 
D|----------------------------------------------------|                               }
A|-14-14-14-14-14-14-14-14-13-13-13-13-13-13-13-13----|                               }
E|----------------------------------------------------|                               }

BRIDGE
e|-----------|
B|-----------|
G|-15--------| x28
D|----16-18--|
A|-----------|
E|-----------|

(NOT SINGLE NOTES, TREMELO NOTES VERY FAST)
e|-----------------|
B|-----------------|
G|-16-15-16-18-16--| x3
D|-----------------|
A|-----------------|
E|-----------------|

OUTRO
(PALM MUTE)
e|---------------------------------------------------------------------------------|  }
B|---------------------------------------------------------------------------------|  }
G|---------------------------------------------------------------------------------|  }
D|13-13-13-13-13-13-16-------------------------------------------------------------|  }
A|---------------------14--------------------11-11-11-11-11-11-11-10---------------|  }
E|---------------------------------------------------------------------------------|  }
                                                                                      }x2
e|----------------------------------------------------|                               }
B|----------------------------------------------------|                               }
G|----------------------------------------------------|                               } 
D|----------------------------------------------------|                               }
A|-14-14-14-14-14-14-14-14-13-13-13-13-13-13-13-13----|                               }
E|----------------------------------------------------|                               }

THANKS FOR READING THE TAB, PLEASE RATE AND ENJOY!
Tap to rate this tab
# A B C D E F G H I J K L M N O P Q R S T U V W X Y Z