Song name
# A B C D E F G H I J K L M N O P Q R S T U V W X Y Z

Everything Everything - Schoolin tab

Everything Everything - Schoolin' (Man Alive)/ 2010

INTRO (no guitar)

e|----------------------------------------------------------|
B|----------------------------------------------------------|
G|----------------------------------------------------------|
D|----------------------------------------------------------|
A|----------------------------------------------------------|
E|----------------------------------------------------------|

VERSE

Brother you look like the Taj Mahal,
One colossal dome above you 
And the smell of something other,
A pillar and a scimitar, a little

Yes I miss you like a formless hide 
Stretching over me and dangled 
From the coastguard in a chopper
The scaffold of me all awry, a little

Broke your shoulder on the library steps 
Hanging round there in the dark 
Just doing nothing or whatever
What do you mean you saw the stars? You little

I could write it in a murder font 
I could say it in a way that would be lying or whatever
I don't want them to tell us apart!

CHORUS

You say that I'm an overlord? 

e|--6------------------10----10-10--------------------------|
B|--8------------------11----11-11--------------------------|
G|--8------------------12----12-12--------------------------|
D|--8------------------12----12-12--------------------------|
A|--6------------------10-----------------------------------|
E|----------------------------------------------------------|

I've got myself a fire hydrant, with more tyrant

e|--6-------------------------------------------------------|
B|--6-------------------------------------------------------|
G|--6-------------------------------------------------------|
D|--8-------------------------------------------------------|
A|--8-------------------------------------------------------|
E|--6-------------------------------------------------------|

In watery blasts, than all of my past!

e|----------------------------------------------------------|
B|----------------------------------------------------------|
G|--10-10-10-12--------10-10-10-12--------------------------|
D|--12-12-12-12--------12-12-12-12--------------------------|
A|----------------------------------------------------------|
E|----------------------------------------------------------|

You seen me on the bridge a lot. 

e|--6------------------10----10-10--------------------------|
B|--8------------------11----11-11--------------------------|
G|--8------------------12----12-12--------------------------|
D|--8------------------12----12-12--------------------------|
A|--6------------------10-----------------------------------|
E|----------------------------------------------------------|

But I never leapt over, the pent upper

e|--6-------------------------------------------------------|
B|--6-------------------------------------------------------|
G|--6-------------------------------------------------------|
D|--8-------------------------------------------------------|
A|--8-------------------------------------------------------|
E|--6-------------------------------------------------------|

My number is up, my number is up

e|----------------------------------------------------------|
B|----------------------------------------------------------|
G|--10-10-10-12--------10-10-10-12--------------------------|
D|--12-12-12-12--------12-12-12-12--------------------------|
A|----------------------------------------------------------|
E|----------------------------------------------------------|

But infinite and joyless little high fives 

e|--6-------------------------------------------------------|
B|--8-------------------------------------------------------|
G|--8-------------------------------------------------------|
D|--8-------------------------------------------------------|
A|--6-------------------------------------------------------|
E|----------------------------------------------------------|

Are singing "praise the lord"

e|----------------------------------------------------------|
B|----------------------------------------------------------|
G|------------------------------7---------------------------|
D|----------------------------8-----------------------------|
A|-------------------------10-------------------------------|
E|----------------------------------------------------------|

And pitter patter this schooling? Is this schooling?

e|--6-------------------------------------------------------|
B|--6-------------------------------------------------------|
G|--6-------------------------------------------------------|
D|--8-------------------------------------------------------|
A|--8-------------------------------------------------------|
E|--6-------------------------------------------------------|

And "you matter not, and you matter not

e|----------------------------------------------------------|
B|----------------------------------------------------------|
G|--10-10-10-12--------10-10-10-12--------------------------|
D|--12-12-12-12--------12-12-12-12--------------------------|
A|----------------------------------------------------------|
E|----------------------------------------------------------|

And is it, the flogging of the Flintstone 

e|--6-------------------------------------------------------|
B|--8-------------------------------------------------------|
G|--8-------------------------------------------------------|
D|--8-------------------------------------------------------|
A|--6-------------------------------------------------------|
E|----------------------------------------------------------|

That I'm supposed to be?

e|----------------------------------------------------------|
B|----------------------------------------------------------|
G|------------------------------7---------------------------|
D|----------------------------8-----------------------------|
A|-------------------------10-------------------------------|
E|----------------------------------------------------------|

The cerebellum get schoolin', and no schoolin' 

e|--6-------------------------------------------------------|
B|--6-------------------------------------------------------|
G|--6-------------------------------------------------------|
D|--8-------------------------------------------------------|
A|--8-------------------------------------------------------|
E|--6-------------------------------------------------------|

The drummer goes on, the drama goes on

e|----------------------------------------------------------|
B|----------------------------------------------------------|
G|--10-10-10-12--------10-10-10-12--------------------------|
D|--12-12-12-12--------12-12-12-12--------------------------|
A|----------------------------------------------------------|
E|----------------------------------------------------------|

(Teach me how to hold)

e|----------------------------------------------------------|
B|----------------------------------------------------------|
G|----------------------------------------------------------|
D|----------------------------------------------------------|
A|----------------------------------------------------------|
E|----------------------------------------------------------|

VERSE

And I don't wanna make a scene 

e|----------------------------------------------------------|
B|--3-3----3-3-3-x-x------------8-8----8-8-8-x-x------------|
G|--5-5----5-5-5-x-x------------9-9----9-9-9-x-x------------|
D|--3-3----3-3-3-x-x------------7-7----7-7-7-x-x------------|
A|----------------------------------------------------------|
E|----------------------------------------------------------|

I don't wanna think about the 3rd world hunger or whatever 

e|----------------------------------------------------------|
B|--8--8----8--8--8--x-x--------8-8--------x-x--------------|
G|--10-10---10-10-10-x-x--------9-9--------x-x--------------|
D|--8--8----8--8--8--x-x--------7-7--------x-x--------------|
A|----------------------------------------------------------|
E|----------------------------------------------------------|

Cos thinking always comes across, a little

e|----------------------------------------------------------|
B|----------------------------------------------------------|
G|----------------------------------------------------------|
D|----------------------------------------------------------|
A|----------------------------------------------------------|
E|----------------------------------------------------------|

There's a meeting of the worlds tonight 

e|----------------------------------------------------------|
B|--3-3----3-3-3-x-x------------8-8----8-8-8-x-x------------|
G|--5-5----5-5-5-x-x------------9-9----9-9-9-x-x------------|
D|--3-3----3-3-3-x-x------------7-7----7-7-7-x-x------------|
A|----------------------------------------------------------|
E|----------------------------------------------------------|

Right above my head a miracle the sun erupt forever

e|----------------------------------------------------------|
B|--8--8----8--8--8--x-x--------8-8--------x-x--------------|
G|--10-10---10-10-10-x-x--------9-9--------x-x--------------|
D|--8--8----8--8--8--x-x--------7-7--------x-x--------------|
A|----------------------------------------------------------|
E|----------------------------------------------------------|

I barely ever raise my eyes, a little

e|----------------------------------------------------------|
B|----------------------------------------------------------|
G|----------------------------------------------------------|
D|----------------------------------------------------------|
A|----------------------------------------------------------|
E|----------------------------------------------------------|

(Teach him how to hold!)

e|----------------------------------------------------------|
B|----------------------------------------------------------|
G|----------------------------------------------------------|
D|----------------------------------------------------------|
A|----------------------------------------------------------|
E|----------------------------------------------------------|

And oh I wanna make the peace 

e|----------------------------------------------------------|
B|----3---3-3---3---3-------------8---8-8---8---8-----------|
G|----5---3h5---5---5-3-----------9---7h9---9---9-7---------|
D|--3-3-3-3-3-3-3-3-3---5-------7-7-7-7-7-7-7-7-7---9-------|
A|----------------------------------------------------------|
E|----------------------------------------------------------|

And god I gotta be on the train 

e|----------------------------------------------------------|
B|--8--8-8--x-8--x-8------------8-8-8--------x-x------------|
G|--10-8h10-x-10-x-10-8---------9-7h9--------x-x------------|
D|--8--8-8--x-8--x-8----10------7-7-7--------x-x------------|
A|----------------------------------------------------------|
E|----------------------------------------------------------|

Past the ruins the wall and the druids oh please

I'm whining like a braking bus 

e|----------------------------------------------------------|
B|----3---3-3---3---3-------------8---8-8---8---8-----------|
G|----5---3h5---5---5-3-----------9---7h9---9---9-7---------|
D|--3-3-3-3-3-3-3-3-3---5-------7-7-7-7-7-7-7-7-7---9-------|
A|----------------------------------------------------------|
E|----------------------------------------------------------|

Maybe I can sit here and do nothing clever with a laser

e|----------------------------------------------------------|
B|--8--8-8--x-8--x-8------------8-8-8--------x-x------------|
G|--10-8h10-x-10-x-10-8---------9-7h9--------x-x------------|
D|--8--8-8--x-8--x-8----10------7-7-7--------x-x------------|
A|----------------------------------------------------------|
E|----------------------------------------------------------|

I'm not about to open up!

e|----------------------------------------------------------|
B|----------------------------------------------------------|
G|----------------------------------------------------------|
D|----------------------------------------------------------|
A|----------------------------------------------------------|
E|----------------------------------------------------------|

CHORUS

You say that I'm an overlord? 

e|--6------------------10----10-10--------------------------|
B|--8------------------11----11-11--------------------------|
G|--8------------------12----12-12--------------------------|
D|--8------------------12----12-12--------------------------|
A|--6------------------10-----------------------------------|
E|----------------------------------------------------------|

I've got myself a fire hydrant, with more tyrant

e|--6-------------------------------------------------------|
B|--6-------------------------------------------------------|
G|--6-------------------------------------------------------|
D|--8-------------------------------------------------------|
A|--8-------------------------------------------------------|
E|--6-------------------------------------------------------|

In watery blasts, than all of my past!

e|----------------------------------------------------------|
B|----------------------------------------------------------|
G|--10-10-10-12--------10-10-10-12--------------------------|
D|--12-12-12-12--------12-12-12-12--------------------------|
A|----------------------------------------------------------|
E|----------------------------------------------------------|

You seen me on the bridge a lot. 

e|--6------------------10----10-10--------------------------|
B|--8------------------11----11-11--------------------------|
G|--8------------------12----12-12--------------------------|
D|--8------------------12----12-12--------------------------|
A|--6------------------10-----------------------------------|
E|----------------------------------------------------------|

But I never leapt over, the pent upper

e|--6-------------------------------------------------------|
B|--6-------------------------------------------------------|
G|--6-------------------------------------------------------|
D|--8-------------------------------------------------------|
A|--8-------------------------------------------------------|
E|--6-------------------------------------------------------|

My number is up, my number is up

e|----------------------------------------------------------|
B|----------------------------------------------------------|
G|--10-10-10-12--------10-10-10-12--------------------------|
D|--12-12-12-12--------12-12-12-12--------------------------|
A|----------------------------------------------------------|
E|----------------------------------------------------------|

But infinite and joyless little high fives 

e|--6-------------------------------------------------------|
B|--8-------------------------------------------------------|
G|--8-------------------------------------------------------|
D|--8-------------------------------------------------------|
A|--6-------------------------------------------------------|
E|----------------------------------------------------------|

Are singing "praise the lord"

e|----------------------------------------------------------|
B|----------------------------------------------------------|
G|------------------------------7---------------------------|
D|----------------------------8-----------------------------|
A|-------------------------10-------------------------------|
E|----------------------------------------------------------|

And pitter patter this schooling? Is this schooling?

e|--6-------------------------------------------------------|
B|--6-------------------------------------------------------|
G|--6-------------------------------------------------------|
D|--8-------------------------------------------------------|
A|--8-------------------------------------------------------|
E|--6-------------------------------------------------------|

And "you matter not, and you matter not"

e|----------------------------------------------------------|
B|----------------------------------------------------------|
G|--10-10-10-12--------10-10-10-12--------------------------|
D|--12-12-12-12--------12-12-12-12--------------------------|
A|----------------------------------------------------------|
E|----------------------------------------------------------|

And is it, the flogging of the Flintstone 

e|--6-------------------------------------------------------|
B|--8-------------------------------------------------------|
G|--8-------------------------------------------------------|
D|--8-------------------------------------------------------|
A|--6-------------------------------------------------------|
E|----------------------------------------------------------|

That I'm supposed to be?

e|----------------------------------------------------------|
B|----------------------------------------------------------|
G|------------------------------7---------------------------|
D|----------------------------8-----------------------------|
A|-------------------------10-------------------------------|
E|----------------------------------------------------------|

The cerebellum get schoolin', and no schoolin' 

e|--6-------------------------------------------------------|
B|--6-------------------------------------------------------|
G|--6-------------------------------------------------------|
D|--8-------------------------------------------------------|
A|--8-------------------------------------------------------|
E|--6-------------------------------------------------------|

The drummer goes on, the drama goes on

e|----------------------------------------------------------|
B|----------------------------------------------------------|
G|--10-10-10-12--------10-10-10-12--------------------------|
D|--12-12-12-12--------12-12-12-12--------------------------|
A|----------------------------------------------------------|
E|----------------------------------------------------------|

The drummer goes on, the drama goes on

e|----------------------------------------------------------|
B|----------------------------------------------------------|
G|----------------------------------------------------------|
D|----------------------------------------------------------|
A|----------------------------------------------------------|
E|----------------------------------------------------------|

BRIDGE

My number is up, my number is up

e|--12-10----10-12-10----10----10-12-10-12-10----10---------| (x16)
B|--------12----------12----12----------------12------------|
G|----------------------------------------------------------|
D|----------------------------------------------------------|
A|----------------------------------------------------------|
E|----------------------------------------------------------|

Earth, I take a long time, to learn about the big one 

e|----------------------------------------------------------|
B|---------------------------7---7---7----------------------|
G|----7h9-------7---7----7/9---9---9---9--------------------|
D|--9-----9-7h9---9-----------------------------------------|
A|----------------------------------------------------------|
E|----------------------------------------------------------|

Gorilla limb swipe and beat, and I learn nil about

e|----------------------------------------------------------|
B|----------------------------------------------------------|
G|--9p7---9p7---9p7---9p7--------7h9---7h9---7h9---7h9------|
D|------9-----9-----9-----9----9-----9-----9-----9----------|
A|----------------------------------------------------------|
E|----------------------------------------------------------|

Earth, remember how men, would understand the heavens 

e|----------------------------------------------------------|
B|---------------------------------7---7---7----------------|
G|----7h9---7h9---7h9---7h9----7/9---9---9---9--------------|
D|--9-----9-----9-----9-------------------------------------|
A|----------------------------------------------------------|
E|----------------------------------------------------------|

But leaving those streetlights on you can't see nothing there

e|----------------------------------------------------------|
B|----------------------------------------------------------|
G|--9p7---9p7---9p7---9p7--------7h9---7h9---7h9---7h9------|
D|------9-----9-----9-----9----9-----9-----9-----9----------|
A|----------------------------------------------------------|
E|----------------------------------------------------------|

So learn me anything good

e|--12-10----10-12-10----10----10-12-10-12-10----10---------| (x16)
B|--------12----------12----12----------------12------------|
G|----------------------------------------------------------|
D|----------------------------------------------------------|
A|----------------------------------------------------------|
E|----------------------------------------------------------|

Teach me something that works, I take a long time, 
To learn about the big one 
Gorilla limb swipe and beat, and I learn dick about Earth. 
Remember good men, would understand the heavens 
And leaving those streetlights on a ghost dark hemisphere Earth. 
I take a long time, to learn about the big one 
Gorilla limb swipe and beat, and I learn dick about Earth.
Remember good man, you understand the heavens 
But leaving those streetlights on?

| /   slide up
| \   slide down
| h   hammer-on
| p   pull-off
| ~   vibrato
| +   harmonic
| x   Mute note
| b   Bend
| pb  Pre-bend
| br  Bend release
| pbr Pre-bend release
| brb Bend release bend
| .   Staccato note

e|----------------------------------------------------------|
B|----------------------------------------------------------|
G|----------------------------------------------------------|
D|----------------------------------------------------------|
A|----------------------------------------------------------|
E|----------------------------------------------------------|
Tap to rate this tab
 
# A B C D E F G H I J K L M N O P Q R S T U V W X Y Z