Song name
# A B C D E F G H I J K L M N O P Q R S T U V W X Y Z

Everything Everything - Kemosabe tab

This is just the version i play along to the track, i realise that its not sticking with 
what the guitarist plays but seeing as there are no real tabs i thought id put up what 
i do.

Intro (Synth)
E|-----------|-----------|
B|-----------|-----------|
G|----8------|-----7-----|
D|----10-----|-----10----|
A|-----------|-----------|
E|-----------|-----------|


Verse
E|-------------|--------------------------------------------------------|
B|-------------|--------------------------------------------------------|
G|-------------|--------------------------------------------------------|
D|-------------|--------------------------------------------------------|
A|-------------|--------------------3-4-4p3-----------------------------|
E|---6----6----|---6----6---6-x-1-4---------4-4-4-1-4-1-4/6-6-4-1h4-4-4-|

E|----------------------------------------------------|
B|----------------------------------------------------|
G|----------------------------------------------------|
D|---11p10--------------------------------------------|x2
A|---------11-11-11-9-11-9-11/13-13-11-9h11-11-11-----|
E|----------------------------------------------------|

Chorus
E|--2-----2-----2--|--1-----1-----1--|--6-----6-----6--|--6-----6-----6-|
B|----4-----4------|----2-----2------|----7-----7------|----7-----7-----|
G|------3-----3----|------1-----1----|------6-----6----|------8-----8---|
D|-----------------|-----------------|-----------------|----------------|
A|-----------------|-----------------|-----------------|----------------|
E|-----------------|-----------------|-----------------|----------------|

E|--4-----4-----4--|--6-----6-----6--|------------------|
B|----6-----6------|----7-----7------|--------10--------|
G|------6-----6----|------6-----6----|--8h9p8----8h9p8--|
D|-----------------|-----------------|------------------|x2
A|-----------------|-----------------|------------------|
E|-----------------|-----------------|------------------|
(I play it an octave lower but can just move this up an oct like the track)


Break (Clean Guitar)
E|----------------------------------------------------------------|
B|-----16---16---------15--15---------13---13--------11----11-----|
G|----------------------------------------------------------------|
D|---17----17--17----15---15--15----13----13--13----12---12--12---|
A|-15--------------13-------------11--------------10--------------|
E|----------------------------------------------------------------|

E|-----------------------------|
B|----11----11-----13----------|
G|---8-----8-------------------|x2
D|---------------13----12---13-|
A|--8----10----11----11---11---|
E|-----------------------------|

E|----------------------------------------------------------------|
B|---16---18---18----15--16---16----13---15---15----11---13---13--|
G|----------------------------------------------------------------|
D|------17---17--------15---15---------13---13--------12----12----|
A|-15--------------13-------------11--------------10--------------|
E|----------------------------------------------------------------|

E|-----------------------------|------------------------|
B|----11----11-----13----------|---11----11-----13------|
G|---8-----8-------------------|---8-----8--------------|
D|---------------13----12---13-|---------------13-------|
A|--8----10----11----11---11---|--8----10----11---------|
E|-----------------------------|------------------------|

Then play the chorus and after it goes into this little extra bar

E|-----------------|
B|------8h9p8------|
G|----8-------8----|
D|--8--------------|
A|-----------------|
E|-----------------|



And those are all the parts you need and ive put up a cover of this tab if you are interested:
https://www.youtube.com/watch?v=dlfYaS59TKg
Tap to rate this tab
# A B C D E F G H I J K L M N O P Q R S T U V W X Y Z