Song name
# A B C D E F G H I J K L M N O P Q R S T U V W X Y Z

Everything Everything - Torso Of The Week tab

-------------------------------------------------------------------------------
                             Torso Of The Week - Everything Everything
-------------------------------------------------------------------------------
Tabbed by: PendulumMan24
Tuning: Standard (EADGBe)

THIS IA A REALLY INTERESTING SONG WHICH CONSISTS OF HARMONISING GUITARS IN PARTS AND 
I'VE LISTED ALL THE PARTS BELOW AND AS WITH ALL OF MY TABS I'LL LIST THE ORDER AT THE 
BOTTOM, THANKS :)

Verse (Palm Muted)

Guitar 1
e|---------------------------------------------------------------------------|
B|---------------------------------------------------------------------------|
G|---------------------------------------------------------------------------|
D|-11-11-11-11-11-11-11-13-11-11-11-11-11-11-11-13-15-15-15-12-12-12-11------|
A|---------------------------------------------------------------------------|
E|---------------------------------------------------------------------------|

e|---------------------------------------------------------------------------|
B|---------------------------------------------------------------------------|
G|---------------------------------------------------------------------------|
D|-11-11-11-11-11-11-11-16-15------------------------------------------------|
A|---------------------------------------------------------------------------|
E|---------------------------------------------------------------------------|

Guitar 2
e|---------------------------------------------------------------------------|
B|---------------------------------------------------------------------------|
G|---------------------------------------------------------------------------|
D|------4-4-4-4-4-----6-6-6-6-6-----6-6-6------------------------------------|
A|-4-4-4---------6-6-6---------4-4-4-----7-7-7-7-7-7-7-6---------------------|
E|---------------------------------------------------------------------------|

Pre-Chorus (w/Delay)
e|-16-14----------14-|
B|-------17-14-17----|
G|-------------------|
D|-------------------|
A|-------------------|
E|-------------------|

Chorus (w/Distortion)
e|-------------------------------------|
B|-------------------------------------|
G|-------------------------------------|
D|-99999988888888889999997777777777----|
A|-------------------------------------|
E|-77777766666666667777775555555555----|

Bridge (Palm Muted)

e|---------------------------------------------------------------------------|
B|---------------------------------------------------------------------------|
G|---------------------------------------------------------------------------|
D|-11-11-11-11-11-11-11-13-11-11-11-11-11-11-11-13-15-15-15-12-12-12-11------|
A|---------------------------------------------------------------------------|
E|---------------------------------------------------------------------------|

e|---------------------------------------------------------------------------|
B|---------------------------------------------------------------------------|
G|---------------------------------------------------------------------------|
D|-11-11-11-11-11-11-11-16-15------------------------------------------------|
A|---------------------------------------------------------------------------|
E|---------------------------------------------------------------------------|

Guitar 2
(THIS PART IS ONLY ON THE FIRST TIME ROUND GUITAR 1'S RIFF, THE RIFF BELOW IS PLAYED 
OVER THE TOP OF THE OTHER 5 TIMES ROUND)
e|---------------------------------------------------------------------------|
B|---------------------------------------------------------------------------|
G|---------------------------------------------------------------------------|
D|--------------------------------------------------------66666--------------|
A|-----------------------------------------------------444-----77777776------|
E|---------------------------------------------------------------------------|

e|---------------------------------------------------------------------------|
B|---------------------------------------------------------------------------|
G|---------------------------------------------------------------------------|
D|----44444---66666---666----------------------------------------------------|
A|-444-----777-----444---77777776--------------------------------------------|
E|---------------------------------------------------------------------------|

ORDER OF PARTS

VERSE (X2)
PRE-CHORUS (X8)
CHORUS (X4)
VERSE (X2)
PRE-CHORUS (X8)
CHORUS (X4)
BRIDGE (X6)
PRE-CHORUS (X8)
CHORUS (X10)

************************************

| /   slide up
| \   slide down
| h   hammer-on
| p   pull-off
| ~   vibrato
| +   harmonic
| x   Mute note
| b   Bend
| pb  Pre-bend
| br  Bend release
| pbr Pre-bend release
| brb Bend release bend

************************************
Tap to rate this tab
# A B C D E F G H I J K L M N O P Q R S T U V W X Y Z