Song name
# A B C D E F G H I J K L M N O P Q R S T U V W X Y Z

Everything - Who Got The Hooch tab

Okay I'll just throw in all the little licks to this as well as the chords and you can 
them in wherever they're needed. And no, I don't mind correcting all these other tabs 
this one. Yes, you're welcome.

These are the chords (sort of):
e|--7--|        e|--7--|
B|--7--|        B|--9--|
G|--8--|        G|--7--|
D|--7--|        D|--9--|
A|--9--|        A|--7--|
E|--7--|        E|--x--|

Guitar 1:
e|--------7-----------7-----------7-----------7----------|
B|------7-----------7-----------7-----------7------------|
G|--7/8-----9---7/8-----9---7/8-----9---7/8--------------|
D|-------------------------------------------------------|
A|-------------------------------------------------------|
E|-------------------------------------------------------|

Guitar 2:
e|---------7------------7------------7-------------7-----|
B|-------------------------------------------------------|
G|--7/8-4----9----7/8-4----9---7/8-4----9----7/8-4---9---|
D|-------------------------------------------------------|
A|-------------------------------------------------------|
E|-------------------------------------------------------|

"Let's get real, let's get heavy..."
e|-------------------------------------------------------|
B|--4--5--7--9--12---------------------------------------|
G|-------------------------------------------------------|
D|-------------------------------------------------------|
A|-------------------------------------------------------|
E|-------------------------------------------------------|

That should be all you need.
Tap to rate this tab
# A B C D E F G H I J K L M N O P Q R S T U V W X Y Z