Song name
# A B C D E F G H I J K L M N O P Q R S T U V W X Y Z

Evil-dog - The Quest Of Your Life tab

Evil dog the quest of your life tabbed by eldoplaysguitar
Newgrounds audio portal
~turn volume swich up

e--------------------------------|
B--------------------------------|
G--------------------------------|
D--------------------------------|
A--------------------------------|
E-5~-8~-5~-8~-10~-8~-10~-12~-15~-|

e-----------------|
B-----------------|
G-----------------|
D-----------------|
A-----------------|
E-5--7-8-7-5-3----|

e---------5-55-55---|
B-------------------|
G-2-22-22/----------|
D-------------------|x2
A-------------------|
E-------------------|

e---------55-5/17-|
B-----------------|
G-2-22-22/--------|
D-----------------|
A-----------------|
E-----------------|

e----------------------|
B----------------------|
G--------------5-7-9-7-|
D-77777-55555--5-7-9-7-|
A-77777-55555--3-5-7-5-|
E-55555-33333----------|

e--------------------------|
B--------------------------|
G------------------5-7-9-7-|
D-77777-1010101010-5-7-9-7-|
A-77777-1010101010-3-5-7-5-|
E-55555-8-8-8-8-8----------|

e----------------------|
B----------------------|
G--------------5-7-9-7-|
D-77777-55555--5-7-9-7-|
A-77777-55555--3-5-7-5-|
E-55555-33333----------|

e----------------------------|
B----------------------------|
G------------------5-7-5-7-5-|
D-77777-1010101010-5-7-5-7-5-|
A-77777-1010101010-3-5-3-5-3-|
E-55555-8-8-8-8-8------------|

back to intro thats all the parts of this song
just listen to it and you will get where thay are played
Tap to rate this tab
# A B C D E F G H I J K L M N O P Q R S T U V W X Y Z