Song name
# A B C D E F G H I J K L M N O P Q R S T U V W X Y Z

Evil-dog - Rocket tab

EVIL-DOG&SWITCH  ROCKET

E----------------------------------|
B----------------------------------|
G----------------------------------|
D-2-2-----4-4-----5-5-----8---6----|
A-2-2-----4-4-----5-5-----8---6----|
E-2-2-2-2-4-4-4-4-5-5-5-5-8---6----|
PM    ---     ---     -------------|

E----------------------------------|
B----------------------------------|
G----------------------------------|
D-2-2-----4-4-----5-5-----8---6----|
A-2-2-----4-4-----5-5-----8---6----|
E-2-2-2-2-4-4-4-4-5-5-5-5-8---6----|
PM    ---     ---     -------------|

E----------------------------------|
B----------------------------------|
G----------------------------------|
D-2-2-----4-4-----5-5-----8---6----|
A-2-2-----4-4-----5-5-----8---6----|
E-2-2-2-2-4-4-4-4-5-5-5-5-8---6----|
PM    ---     ---     -------------|

E---------------------------------------|
B---------------------------------------|
G---------------------------------------|
D-2-2-----4-4-----8-8-8-8-6-6-6-6-0-----|
A-2-2-----4-4-----8-8-8-8-6-6-6-6-0-----|
E-2-2-2-2-4-4-4-4-8-8-8-8-6-6-6-6-0-----|
PM    ---     --------------------------|

E------------------|
B------------------|
G------------------|
D-7777555544442222-|
A------------------|
E------------------|

E-------------------------------|
B-------------------------------|
G-------------------------------|
D-2-----------4-----------0-----|
A-2-----------4-----------0-----|
E-2--22222222-4--44444444-0-----|
PM   --------    ---------------|

E------------------|
B------------------|
G------------------|
D-2222444455557777-|
A------------------|
E------------------|

E-----------------------------------------|
B-----------------------------------------|
G-----------------------------------------|
D-4-----------2-----------5-5-5-4-4-4-0---|
A-4-----------2-----------5-5-5-4-4-4-0---|
E-4--44444444-2--22222222-5-5-5-4-4-4-0---|
PM   --------    -------------------------|

THAT SONG ONLY GOES FOR 26 SECONDES

TABBED BY HAYDEN DAVIES
E-MAIL- turkey139@hotmail.com
Tap to rate this tab
# A B C D E F G H I J K L M N O P Q R S T U V W X Y Z