Song name
# A B C D E F G H I J K L M N O P Q R S T U V W X Y Z

Evil-dog - Merry Fuckmas tab

EVIL-DOG     MERRY FUCKMAS

     http://www.newgrounds.com/audio/listen/113475


E------------------------------------------------|
B------------------------------------------------|
G-7--5-4--2-----2--4------2-4-5-2-4---2----------|
D-X--X-X--X--5--X--X--5---X-X-X-X-X---X-5--4--5--|
A-5--3-2--0--X--0--2--X---0-2-3-0-2---0-X--X--X--|
E------------3--------3-----------------3--2--3--|

E------------------------------------------------|
B------------------------------------------------|
G-7--5-4--2-----2--4------9-9-9-9-5--2-----------|
D-X--X-X--X--5--X--X--5---X-X-X-X-X--X-5--4--5---|
A-5--3-2--0--X--0--2--X---7-7-7-7-3--0-X--X--X---|
E------------3--------3----------------3--2--3---|

E------------------------------------------------|
B------------------------------------------------|
G-7--5-4--2-----2--4------2-4-5-2-4---2----------|
D-X--X-X--X--5--X--X--5---X-X-X-X-X---X-5--4--5--|
A-5--3-2--0--X--0--2--X---0-2-3-0-2---0-X--X--X--|
E------------3--------3-----------------3--2--3--|

E------------------------------------------------|
B------------------------------------------------|
G-7--5-4--2-----2--4------9-9-9-9-5--2-----------|
D-X--X-X--X--5--X--X--5---X-X-X-X-X--X-5--4--5---|
A-5--3-2--0--X--0--2--X---7-7-7-7-3--0-X--X--X---|
E------------3--------3----------------3--2--3---|

E----------------------------0-2-3--2--0-----|
B--------------------0-2-3-----------------3-|
G----0-1---0--1-3----------------------------|
D--2-----2--------2--------------------------|
A--------------------------------------------|
E--------------------------------------------|

E------------------------------------------------|
B------------------------------------------------|
G-7--5-4--2-----2--4------2-4-5-2-4---2----------|
D-X--X-X--X--5--X--X--5---X-X-X-X-X---X-5--4--5--|
A-5--3-2--0--X--0--2--X---0-2-3-0-2---0-X--X--X--|
E------------3--------3-----------------3--2--3--|

E------------------------------------------------|
B------------------------------------------------|
G-7--5-4--2-----2--4------9-9-9-9-5--2-----------|
D-X--X-X--X--5--X--X--5---X-X-X-X-X--X-5--4--5---|
A-5--3-2--0--X--0--2--X---7-7-7-7-3--0-X--X--X---|
E------------3--------3----------------3--2--3---|

HO HO HO MERRY(BANG)

TABBED BY HAYDEN DAVIES
E MAIL  turkey139@hotmail.com
Tap to rate this tab
# A B C D E F G H I J K L M N O P Q R S T U V W X Y Z