Song name
# A B C D E F G H I J K L M N O P Q R S T U V W X Y Z

Evil Skins - Docs Bretelles Et Porte Jarretelles chords

Highlighted       Show chord diagrams
Evil Skins - Docs, Bretelles et Porte-jarretelles

Best to play with these chords: 
         C#            F#        B         E
e|-------9-------------9---------7---------7-----------------------------------|
B|-------9-------------10--------7---------9-----------------------------------|
G|-------10------------10--------8---------9-----------------------------------|
D|-------11------------10--------9---------9-----------------------------------|
A|-------11------------9---------9---------7-----------------------------------|
E|-------9-----------------------7---------------------------------------------|


C#  F#  B E  F#


  C#             F#      B     E       F#
e|---------------------------------------------------------------------------|
B|---------------------------------------------------------------------------|
G|--6-4------------------------4---4---6-6-6---------------------------------|
D|------6-6----4-6-4-----2-4-6---6-------------------------------------------|
A|---------------------4-----------------------------------------------------|  (au saxophone)
E|---------------------------------------------------------------------------|


e|---------------------------------------------------------------------------|
B|---------------------------------------------------------------------------|
G|--6-4------------------------4---4-----------------------------------------|
D|------6-6----4-6-4-----2-4-6---6----6-4-4----------------------------------|
A|---------------------4-----------------------------------------------------|
E|---------------------------------------------------------------------------|

   C#                          F#  
T'étais allée chercher l'homme de tes rêves
B           E              F#
En me rencontrant, tu l'as rencontré
C#                                F#  
C'était aux heures de pointe dans le métro
B               E            F#
Tu trouvais que j'te serrais un peu trop
C#                            F# 
Tu me plaisais bien et moi je te plaisais
             B        E             F#
Alors d'puis ce jour là on ne s'est plus quittés


C#             F#  
Skinhead girl, tu es belle
B        E         F#
Docs, Bretelles et Porte Jarretelles

   C#             F#  
Oh Skinhead girl, tu es belle
B        E         F#
Docs, Bretelles et Porte Jarretelles



Tu sais que t'es belle et je sais que je suis beau
Même si a bien r'garder ca peut paraître faux
Chaque fois que j'me branche une petite punkette,
Tu te ramènes aussitôt pour lui faire sa fête
Je ne t'ai jamais trompée sauf une ou deux fois,
Mais je te le jure je n'ai pas fait exprès

Oh Skinhead girl, tu es belle
Docs, Bretelles
Et Porte Jarretelles

Oh Skinhead girl, tu es belle
Docs, Bretelles
Et Porte Jarretelles

Allez te fâches pas, tais toi reste là
Tu n'a rien à dire, c'est moi qui fais la loi
Pour te calmer j'tai payé une paire de monkey boots
Pour qu'enfin tu puisses aller jouer au foot
Tu dis que l'amour tues, arrête donc tes conneries
Viens entres dans mon lit que j'te montre comment moi je tue

Skinhead girl, tu es belle
Docs, Bretelles
Et Porte Jarretelles

Oh Skinhead girl, tu es belle
Docs, Bretelles
Et Porte Jarretelles

Tu veux que j'te fasse un môme j'peux même t'en faire plusieurs
Bouges pas ton cul comme ca, tu me donnes mal au coeur
L'amour c'est bien beau, le cul c'est pas mal non plus
Si j'me r'tenais pas, y en aurait des cocus
Le dimanche matin au lieu d'aller à la messe
Je me retrouve à poil à te toucher les fesses

Je me retrouve à poil
Je me retrouve à poil
Je me retrouve à poil
Je me retrouve à poil à te toucher les fesses

SKINHEAD GIRL ! (8x)
Tap to rate this tab
 
# A B C D E F G H I J K L M N O P Q R S T U V W X Y Z