Song name
# A B C D E F G H I J K L M N O P Q R S T U V W X Y Z

Evile - Thrasher tab

EVILE  Thrasher Solo Tabs

Tabbed by - Daniel Jordan of Souls Of Stone

I tabbed this up after learning it from Ol on youtube and his video was a big help, i couldn't
tab up the verse solo because its quite hard to get down note for note. ive broke it up 
sections so its easier to get your head around. hope this helps.

Section 1

-----------------------------------------------------------------
-7p3p0-0-7p3p0-0-7p3p0-0-7p3p0-0-7p3p0-0-7p3p0-0-7p3p0-0-7p3p0-0-
-----------------------------------------------------------------
-----------------------------------------------------------------
-----------------------------------------------------------------
-----------------------------------------------------------------

-------------------------------------------------------------------
-6p3p0-0-6p3p0-0-6p3p0-0-6p3p0-0-9p6p0-0-9p6p0-0-12p9p0-0-12p9p0-0-
-------------------------------------------------------------------
-------------------------------------------------------------------
-------------------------------------------------------------------
-------------------------------------------------------------------

-----------------------------------------
-15p12p0-0-15p12p0-0-15p12p0-0-15p12p0-0-
-----------------------------------------
-----------------------------------------
-----------------------------------------
-----------------------------------------

-----------------------------------------
-19p15p0-0-19p15p0-0-19p15p0-0-19p15p0-0-
-----------------------------------------
-----------------------------------------
-----------------------------------------
-----------------------------------------

----------------------------------------------------------------------
-18p15p0-0-18p15p0-0-18p15p0-0-18p15p0-0--22p18p0-0-22p18p0-0-22~-22~-
----------------------------------------------------------------------
----------------------------------------------------------------------
----------------------------------------------------------------------
----------------------------------------------------------------------

Section 2

-19-20p19--------19-20p19--------19-20p19--------19-20p19--------19-20p19---------
---------22-19p22--------22-19h22--------22-19h22--------22-19h22--------22-19h22-
----------------------------------------------------------------------------------
----------------------------------------------------------------------------------
----------------------------------------------------------------------------------
----------------------------------------------------------------------------------

-19-20--22-20-19-17-20-19-17-15--19-17-15-14-17-15-14-12--15-14-12-10--14-12-10-8-
------------------------------------------------------------------------------------
------------------------------------------------------------------------------------
------------------------------------------------------------------------------------
------------------------------------------------------------------------------------
------------------------------------------------------------------------------------

-12-10-8\7h8h10p8p7-------
-------------------10~~~~-
--------------------------
--------------------------
--------------------------
--------------------------

Section 3

-7-----------------------------------------
---7-10---7---6----------------------------
--------9---8------8-----------------------
----------------10---7-10---7--------------
--------------------------9---6-10-3ph~~~~-
-------------------------------------------


Section 4

---------------------6-10p6-10/12-10-12/17-15~-17~-17h18p17---17~~-
------------------10----------------------------------------20-----
----------------9--------------------------------------------------
--------------8----------------------------------------------------
-3/12~~-10-12------------------------------------------------------
-------------------------------------------------------------------

-17-18-20b22-20-18-17-18~-17h18p17----17----17----
-----------------------------------20-20b22-20b22-
--------------------------------------------------
--------------------------------------------------
--------------------------------------------------
--------------------------------------------------

-17h18h20p18p17-\-13h17p15p13-\-12h13h15p13p12-------
-----------------------------------------------13----
-------------------------------------------------14~-
-----------------------------------------------------
-----------------------------------------------------
-----------------------------------------------------

------------------------15-15-------------------------------
-----13-15-15b16b15b17~----15b-17pb15p13-15b17b15p13--------
-/14-------------------------------------------------14~~~~-
------------------------------------------------------------
------------------------------------------------------------
------------------------------------------------------------

Section 5

-------------------13-15-17~~~~-------------------15-17-18~~~~-
----------13-15-17-----------------------15-17-18--------------
-12-14-15-----------------------14-15-17-----------------------
---------------------------------------------------------------
---------------------------------------------------------------
---------------------------------------------------------------

-20b22-20b22-20b22r20-18-22b24~~-22b24~~~~-
-------------------------------------------
-------------------------------------------
-------------------------------------------
-------------------------------------------
-------------------------------------------
Tap to rate this tab
# A B C D E F G H I J K L M N O P Q R S T U V W X Y Z