Song name
# A B C D E F G H I J K L M N O P Q R S T U V W X Y Z

Evile - Thrasher tab

I wanted to learn this song, but only found half-ass tabs. Now im not very good at
tabbing, but I gave it a shot. This is the most perfect tab of Thrasher ive ever seen
but its
not finished yet. I watched Ol show how to play it on youtube, and then I did scan over
other tabs just to proof read what I was writing. This will eventually be complete with
solo's and everything, but if I do get the solo's they will have to be from someone
else. Im just here to compile all the broken tabs so people can learn this song.

I will finish tabbing sometime.

_____________________________________________________________

LEAD 1
e:|------------------|----------------------------x3|
B:|------------------|------------------------------|
G:|----(1st time)----|------------------------------|
D:|------------------|------------------------------|
A:|------------------|------------------------------|
E:|-0-0-0-0-0--0-0-0-|-0-0-0-0-0-0-0-0-0-0-0--0-0-0-|

RHYTHM
e:|------------------------------|------------|
B:|------------------------------|------------|
G:|------------------------------|------------|
D:|------------------------------|-2----(2)---|<- only play held on 3rd
A:|------------------------------|-2----(2)---|
E:|-0-0-0-0-0--0-0-0--0-0-0-0-0-0|-0----(0)---|

Repeat the above 3 times.

LEAD
e:|------------------|----------------------------x3|
B:|------------------|------------------------------|
G:|----(1st time)----|------------------------------|
D:|------------------|------------------------------|
A:|------------------|------------------------------|
E:|-0-0-0-0-0--0-0-0-|-0-0-0-0-0-0-0-0-0-0-0--0-0-0-|

LEAD + RHYTHM
e:|------------------------------|---|
B:|------------------------------|---|
G:|------------------------------|-3-|
D:|------------------------------|-3-|
A:|------------------------------|-1-|
E:|-0-0-0-0-0--0-0-0--0-0-0-0-0-0|---|
_____________________________________________________________

LEAD + RHYTHM
e:|------------------|----------------------------x2|
B:|------------------|------------------------------|
G:|----(1st time)----|------------------------------|
D:|------------------|------------------------------|
A:|------------------|------------------------------|
E:|-0-0-0-0-0--0-0-0-|-0-0-0-0-0-0-0-0-0-0-0--0-0-0-|

e:|------------------------------|
B:|------------------------------|
G:|------------------------------|
D:|------------------------------|
A:|----------------------2---3-2-|
E:|-0-0-0-0-0-0--0-1-4-3---4-----|

Repeat the above 2 times.

e:|-----------------------------x4|-----|
B:|-------------------------------|-----|
G:|-------------------------------|-----|
D:|-------------------------------|-2---|
A:|---------2---3-2-4-3-2-3-2-----|-2---|
E:|-0-1-4-3---4---------------4-3-|-0---|

Lead plays first part of above only x2 then switches to:

e:|--------------------------------x2|-----|
B:|----------------------------------|-----|
G:|----------7----8-7-9-8-7-8-7------|-----|
D:|-5-6-10-9---10---------------10-9-|-2---|
A:|----------------------------------|-2---|
E:|----------------------------------|-0---|

_____________________________________________________________________
LEAD
e:|---------------------------------------------------------------x2|
B:|---------------------------------------------------------3-3-----|
G:|---------------4---3-------------------10--------9---8---2-2-----|
D:|---------4\3---2---1-------------------8---9\8---7---6---0-0-----|
A:|-----3---2\1-------------------------------7\6-----------0-0-----|
E:|-0-0-1-0-----0---0---0-0--0-0-0--0-0-0 --0-----0---0-------------|


e:|------------------------------|-------------------------------|
B:|------------------------------|-------------------------------|
G:|------------------------------|-------------------------------|
D:|------------------------------|-------------------------------|
A:|----------3-------9\8---------|----------3-------8\7----------|
E:|-0-0-0-0--1--0-0--7\6--0-0-0-0|-0-0-0-0--1--0-0--6\5--0-0-0-0-|
								  >x2
e:|------------------------------|--------------------|--------|
B:|------------------------------|--------------------|--------|
G:|------------------------------|---------------4/5-5|-5\4-4--| <-2nd time play
D:|------------------------------|---------------2/3-3|-3\2-2--|
A:|----------3-------9\8---------|----------3---------|--------|
E:|-0-0-0-0--1--0-0--7\6--0-0-0-0|-0-0-0-0--1--0------|--------|
_____________________________________________________________________

*play this section ending with different bar each time*

D#|------------------------------------------------------|
A#|------------------------------------------------------|
F#|----------------------------------------------2h3-2h3-|
C#|-2-----------2---------------3/5--------------2h3-2h3-|
G#|-0--0-0-0-0--0--0-0-0-0-0-0--1/3--0-0-0-0-0-0---------|
D#|------------------------------------------------------|
							     x4
D#|--------------------------------------------------|-----|-----|---------|
A#|--------------------------------------------------|-----|-----|---------|! - Rhythem Guitarist
F#|--------------------------------------------------|-----|-----|---------|
C#|-2-----------2---------------3/5--------------3---|-8-7-|-3---|-3---5---|
G#|-0--0-0-0-0--0--0-0-0-0-0-0--1/3--0-0-0-0-0-0-1-4-|!5-4!|-1-4-|-1-4-3-6-|
D#|------------------------------------------------2-|-----|---2-|---2---4-|
							!
__________________________________________________________________________________

D#|------------------------------------------------------------------------------|
A#|------------------------------------------------------------------------------|
F#|------------------------------------------------------------------------------|
C#|-2---------------2------------------------------------------------------------|
G#|-2---------------2-----------3/8----------------------------------9\8---8\5---|
D#|-0--0-0-0-0-0-0--0--0-0-0-0--1/6--6-6-6-6-6-6-6-6-6-6-6-6-6-6-6---7\6-0-6\3---|


D#|------------------------------------------------------------------------------|
A#|------------------------------------------------------------------------------|
F#|------------------------------------------------------------------------------|
C#|------------------------------------------------------------------------------|
G#|--------------5/8---8\7-------------------------------------------------------|
D#|-3-3-3-3-3-3--3/6-0-6\5--5-5-5-5-5-5------------------------------------------|
Tap to rate this tab
 
# A B C D E F G H I J K L M N O P Q R S T U V W X Y Z