Song name
# A B C D E F G H I J K L M N O P Q R S T U V W X Y Z

Evile - Cult tab

-----------------------------------------------------------------------------
				CULT - Evile
-----------------------------------------------------------------------------
Tabbed by: PappaDiamond
Email: lucascarvalho1995@hotmail.com

Tuning: Half-Step Down (D#, G#, C#, F#, A#, D#)

			 Intro
e|-------------------------|-----------------------|
B|-------------------------|-----------------------|
G|-------------------------|-----------------------| (4x)
D|--/8---5\3\2----8-8/9\8--|--/8--5\3\2-/5--2------|
A|--/8---5\3\2----8-8/9\8--|--/8--5\3\2-/5--2------|
E|--/6---3\1\0----6-6/7\6--|--/6--3\1\0-/3--0------|


			  Verse
e|---------------------------|-----------------------------|
B|---------------------------|-----------------------------|
G|---------------------------|-----------------------------| (4x)
D|--/8---5\3\2---------------|--/8--5\3\2-/5--2------------|
A|--/8---5\3\2------2-------2|--/8--5\3\2-/5--2------2-----|
E|--/6---3\1\0--0-0-0-0-0-0-0|--/6--3\1\0-/3--0--0-0-0-0---|
           PM------------|            PM-------------------|

	  Chorus
e|------------------------|
B|------------------------|
G|--5-----------4--4/5\4--|
D|--5----4------4--4/5\4--|
A|--3----4------2--2/3\2--|
E|-------2----------------|

I'm trying to figure out the rest of the chorus, and will update as I transcribe the 
whole song... if you already figured out some other parts, e-mail me and I update it here 
with your credits.
Tap to rate this tab
 
# A B C D E F G H I J K L M N O P Q R S T U V W X Y Z