Song name
# A B C D E F G H I J K L M N O P Q R S T U V W X Y Z

Evile - Centurion tab

-------------------------------------------------------------------------------
                                Centurion - Evile
-------------------------------------------------------------------------------
Tabbed by: ME!
Email: liam.b96@hotmail.co.uk

Tuning: Eb Bb Db Gb Ab Eb

This is my first Tab so sorry if the 
timing's off on some parts. I've put
as much of the song into this as I 
could make out and bits are missing
(like the solo), so please e-mail me
with anything that I've missed off to
make it better, Thanks \m/


INTRO


 | No.1                | No.2         
e|---------------------|--------------|
B|---------------------|--------------|
G|---------------------|--------------|
D|---------------------|--------------|
A|--5-8-12-17-20-18-11-|-10-9-8-7-6---|
E|---------------------|--------------| x4 (only play No.1 until 4th time play No.2 after No.1)
 
 | No.3          | No.4              
e|---------------|---------------------|
B|---------------|o-------------------o|
G|---------------|---------------------|
D|---------------|o-------------------o|
A|-2222222-88-33-|11-10-99999-88-33----|
E|-0000000-66-11-|9--8--77777-66-11----| x4 (Only No.2 part is repeated)

e|-------------------|
B|-------------------|
G|-------------------|
D|-------------------|
A|-11-10-9--8--3232--|
E|-9--8--7--6--1010--| x4


INTRO/VERSE FILL

e|---------------------------------------------------------------------------|
B|-/9-9\7-7-9-10-10-7-6-5----------------------------------------------------|
G|---------------------------------------------------------------------------|
D|---------------------------------------------------------------------------|
A|---------------------------5-55p4h5-5-55p4h5--5-55p5h5--5-55p4h5--4-44p3h4-|
E|---------------------------------------------------------------------------|

e|---------------------------------------------------------------------------|
B|---------------------------------------------------------------------------|
G|---------------------------------------------------------------------------|
D|---------------------------------------------------------------------------|
A|-4-44p3h4--4-44p3h4--4-44p3h4\---------------------------------------------|
E|---------------------------------------------------------------------------
|


VERSE ( I guard the great dominion...)

 | No.1 x2                     | No.2 (Play on 2nd time)
e|-----------------------------|----------|
B|-----------------------------|----------|
G|-----------------------------|----------|
D|-----------------------------|----------|
A|-2-2-22-22-33-2-22-22-14-14\-|-14\13\11-|
E|-0-0-00-00-11-0-00-00-12-12\-|-12\11\10-|


VERSE/CHORUS FILL (Prepare! Prepare for war...)


e|-------------------------------------------------------------------------------|
B|-------------------------------------------------------------------------------|
G|-------------------------------------------------------------------------------|
D|-------------------------------------------------------------------------------|
A|-5-55p4h5-5-55p4h5--5-55p4h5--5-55p4h5--4-44p3h4--4-44p3h4--4-44p3h4--4-44p3h4-|
E|-------------------------------------------------------------------------------|


CHORUS Pt 1 (I give orders, obey...)

e|---------------|---------------------|
B|---------------|---------------------|
B|---------------|o-------------------o|
G|---------------|---------------------|
D|---------------|o-------------------o|
A|-2222222-88-33-|11-10-99999-88-33----|
E|-0000000-66-11-|9--8--77777-66-11----| x4 Repeat as Intro (Last bar repeat)

CHORUS Pt 2 ( I am Centurion!)

e|-------------------|
B|-------------------|
G|-------------------|
D|-------------------|
A|-11-10-9--8--3232--|
E|-9--8--7--6--1010--| x4 

THEN REPEAT: 

INTRO/VERSE FILL

VERSE

VERSE/CHORUS FILL

CHORUS Pt 1
CHORUS Pt 2


CHORUS/SOLO RIFF FILL

e|-------------------------------------------------|
B|-------------------------------------------------|
G|-/9-9\7-9-10-10-9-10/12-12\10-9-10-14\12-10-9-7--|
D|-------------------------------------------------|
A|-------------------------------------------------|
E|-------------------------------------------------|

e|------------------------------------------------------------|
B|------------------------------------------------------------|
G|------------------------------------------------------------|
D|------------------------------------------------------------|
A|-5-55p4h5--5-55p4h5--5-55p4h5--5-55p4h5--6-66p5h6--7-77p6h7-|
E|------------------------------------------------------------|


CHORUS/PRE-SOLO RIFF

e|-----------------------------------------------|
B|-----------------------------------------------|
G|-----------------------------------------------|
D|-4/16--------------------4/16------------------|
A|-4/16-10\9--12\11-12\11--4/16-10\9--10\9-10\9--|
E|-2/14-8-\7--10\9--10\9---2/14-8-\7--8-\7-8-\7--| x5


SOLO RIFF (NOT SURE ABOUT THIS THOUGH, SORRY)

e|--------------------|
B|--------------------|
G|----12--------------|
D|-6--12--8\7--8\78\7-|
A|-6--10--6\5--6\56\5-|
E|-4------------------| x5

****THERE'S ANOTHER RIFF HERE WHICH I CAN'T WORK OUT FOR
THE LIFE OF ME, ANY HELP WITH THIS WOULD BE GREATLY 
APPRECIATED***

REPEAT:

CHORUS Pt 1
CHORUS Pt 2

INTRO/VERSE FILL
INTRO No.1 x4 No.2 on 4th time

That's about as much as I got with this, 
and any contributions would be a 
great help and whatnot, especially 
the solo, cheers. :D






************************************

| /   slide up
| \   slide down
| h   hammer-on
| p   pull-off
| ~   vibrato
| +   harmonic
| x   Mute note
| b   Bend
| pb  Pre-bend
| br  Bend release
| pbr Pre-bend release
| brb Bend release bend

************************************
Tap to rate this tab
# A B C D E F G H I J K L M N O P Q R S T U V W X Y Z