Song name
# A B C D E F G H I J K L M N O P Q R S T U V W X Y Z

Evile - Enter The Grave tab

Help us improve GuitareTab! Take a short survey!
-------------------------------------------------------------------------------
			     Enter The Grave - Evile
-------------------------------------------------------------------------------

Tabbed by: Mustaine
Email: kreator11@gmail.com


Tuning: E Flat


D#|------------------------------------------------------------------------------|
A#|------------------------------------------------------------------------------|
F#|------------------------------------------------------------------------------|
C#|------------------------------------------------------------------------------|
G#|----------8-7-6-----------8-7-6-----------8-7-6-----------8-7-6---------------|
D#|-3-3-3-3--6-5-4--3-3-3-3--6-5-4--3-3-3-3--6-5-4--3-3-3-3--6-5-4---------------|
                                                                              

D#|------------------------------------------------------------------------------|
A#|------------------------------------------------------------------------------|
F#|------------------------------------------------------------------------------|
C#|-------------------------------------------------------------3----------------|
G#|-5-4---3-4---5-4---3-4---5-4---3-4---5-4---3-4---5-4---3-4---1----------------|
D#|-3-2-0-1-2-0-3-2-0-1-2-0-3-2-0-1-2-0-3-2-0-1-2-0-3-2-0-1-2-0------------------|
                              x2                                              

D#|------------------------------------------------------------------------------|
A#|------------------------------------------------------------------------------|
F#|------------------------------------------------------------------------------|
C#|-------------3-------------3-3---------------3-------------3-3----------------|
G#|-5-4---3-4---1--5-4---3-4--1-1---5-4---3-4---1--5-4---3-4--1-1----------------|
D#|-3-2-0-1-2-0----3-2-0-1-2--------3-2-0-1-2-0----3-2-0-1-2---------------------|
                                                                              

D#|------------------------------------------------------------------------------|
A#|------------------------------------------------------------------------------|
F#|------------------------------------------------------------------------------|
C#|-------------------------3---------------------3-3----------------------------|
G#|-------------------------1---------------------1-1----------------------------|
D#|-3-3-2-2-0-0-1-1-2-2-0-0-----3-3-2-2-0-0-1-1-2--------------------------------|
                              x2                                              

D#|------------------------------------------------------------------------------|
A#|------------------------------------------------------------------------------|
F#|------------------------------------------------------------------------------|
C#|-2----------------------------------------------------------------------------|
G#|-2---------------4b5r4---------------5-----8\7--5-8---------------------------|
D#|-0--0-0-0-0--5/6-------5-3--0-0-0-0--3-0-0-6\5--3-6---------------------------|
   substitute hammer-on/pulloff for the bends if you want                       

D#|------------------------------------------------------------------------------|
A#|------------------------------------------------------------------------------|
F#|------------------------------------------------------------------------------|
C#|-2----------------------------------------------------------------------------|
G#|-2---------------4b5r4--------------------------------------------------------|
D#|-0--0-0-0-0--5/6-------5-3--0-0-0-0-0-0-0-0-0-0-0-0-0-0-0-0-------------------|
                                                                              

D#|------------------------------------------------------------------------------|
A#|------------------------------------------------------------------------------|
F#|------------------------------------------------------------------------------|
C#|---2--------------------------------------------------------------------------|
G#|---2---------------4b5r4---------------5-----8\7--5-8-------------------------|
D#|---0--0-0-0-0--5/6-------5-3--0-0-0-0--3-0-0-6\5--3-6-------------------------|
                                                                              

D#|------------------------------------------------------------------------------|
A#|------------------------------------------------------------------------------|
F#|------------------------------------------------------------------------------|
C#|-2----------------------------------------------------------------------------|
G#|-2---------------4b5r4------8-7-5-7-------------------------------------------|
D#|-0--0-0-0-0--5/6-------5-3--6-5-3-5-------------------------------------------|
                                                                              

D#|------------------------------------------------------------------------------|
A#|------------------------------------------------------------------------------|
F#|------------------------------------------------------------------------------|
C#|-9----------------------------------------------------------------------------|
G#|-7---------------4b5r4---------------5-----8\7--5-8---------------------------|
D#|----0-0-0-0--5/6-------5-3--0-0-0-0--3-0-0-6\5--3-6---------------------------|
                                                                              

D#|------------------------------------------------------------------------------|
A#|------------------------------------------------------------------------------|
F#|------------------------------------------------------------------------------|
C#|-9----------------------------------------------------------------------------|
G#|-7---------------4b5r4--------------------------------------------------------|
D#|----0-0-0-0--5/6--------5-3--0-0-0-0-0-0-0-0-0-0-0-0-0-0-0-0------------------|
                                                                              

D#|------------------------------------------------------------------------------|
A#|------------------------------------------------------------------------------|
F#|------------------------------------------------------------------------------|
C#|-9----------------------------------------------------------------------------|
G#|-7---------------4b5r4----------------5-----8\7--5-8--------------------------|
D#|----0-0-0-0--5/6--------5-3--0-0-0-0--3-0-0-6\5--3-6--------------------------|
                                                                              

D#|------------------------------------------------------------------------------|
A#|------------------------------------------------------------------------------|
F#|------------------------------------------------------------------------------|
C#|-9----------------------------------------------------------------------------|
G#|-7---------------4b5r4------8-7-5-7----8--------------------------------------|
D#|----0-0-0-0--5/6-------5-3--6-5-3-5----6--------------------------------------|
                                                                              

D#|------------------------------------------------------------------------------|
A#|------------------------------------------------------------------------------|
F#|------------------------------------------------------------------------------|
C#|------------------------------------------------------------------------------|
G#|---------------------------------------5-4------------------------------------|
D#|-0--0-0-0--0-0-0--0-0-0--0-0-0---3-5-6-----6-5--------------------------------|
                                                                              

D#|------------------------------------------------------------------------------|
A#|------------------------------------------------------------------------------|
F#|------------------------------------------------------------------------------|
C#|------------------6---4-----------------10-10-9-------------------------------|
G#|------------------7---5------------------8--8-7-------------------------------|
D#|-0--0-0-0--0-0-0----0---0--0-0-0--0-0-0---------------------------------------|
                                                                              

D#|------------------------------------------------------------------------------|
A#|------------------------------------------------------------------------------|
F#|------------------------------------------------------------------------------|
C#|------------------------------------------------------------------------------|
G#|---------------------------------------5-4------------------------------------|
D#|-0--0-0-0--0-0-0--0-0-0--0-0-0---3-5-6-----6-5--------------------------------|
                                                                              

D#|------------------------------------------------------------------------------|
A#|------------------------------------------------------------------------------|
F#|------------------------------------------------------------------------------|
C#|------------------6---4-----------------10-10-9--8----------------------------|
G#|------------------7---5------------------8--8-7--6----------------------------|
D#|-0--0-0-0--0-0-0----0---0--0-0-0--0-0-0---------------------------------------|
                                                                              

D#|------------------------------------------------------------------------------|
A#|------------------------------------------------------------------------------|
F#|------------------------------------------------------------------------------|
C#|--------------------------------------------------------------6-5-------------|
G#|-------------------------5-4------------------------------5-4-----------------|
D#|-0-0-0-0-0-0-0-0-0-3-5-6-----6-5--0-0-0-0-0-0-0-0-0-3-5-6---------------------|
 vocals come in here                                                 x4       

D#|------------------------------------------------------------------------------|
A#|------------------------------------------------------------------------------|
F#|------------------------------------------------------------------------------|
C#|-9----------------------------------------------------------------------------|
G#|-7---------------4b5r4---------------5-----8\7--5-8---------------------------|
D#|----0-0-0-0--5/6-------5-3--0-0-0-0--3-0-0-6\5--3-6---------------------------|
                                                                              

D#|------------------------------------------------------------------------------|
A#|------------------------------------------------------------------------------|
F#|------------------------------------------------------------------------------|
C#|-9----------------------------------------------------------------------------|
G#|-7--------------4b5r4---------------------------------------------------------|
D#|---0-0-0-0--5/6-------5-3--0-0-0-0-0-0-0-0-0-0-0-0-0-0-0-0--------------------|
                                                                              

D#|------------------------------------------------------------------------------|
A#|------------------------------------------------------------------------------|
F#|------------------------------------------------------------------------------|
C#|-9----------------------------------------------------------------------------|
G#|-7--------------4b5r4---------------5-----8\7--5-8----------------------------|
D#|---0-0-0-0--5/6-------5-3--0-0-0-0--3-0-0-6\5--3-6----------------------------|
                                                                              

D#|------------------------------------------------------------------------------|
A#|------------------------------------------------------------------------------|
F#|------------------------------------------------------------------------------|
C#|-9----------------------------------------------------------------------------|
G#|-7---------------4b5r4------8-7-5-7----8--------------------------------------|
D#|----0-0-0-0--5/6-------5-3--6-5-3-5----6--------------------------------------|
                                                                              

D#|------------------------------------------------------------------------------|
A#|------------------------------------------------------------------------------|
F#|------------------------------------------------------------------------------|
C#|------------------------------------------------------------------------------|
G#|---------------------------------------5-4------------------------------------|
D#|-0--0-0-0--0-0-0--0-0-0--0-0-0---3-5-6-----6-5--------------------------------|
   solo comes in here                                                         

D#|------------------------------------------------------------------------------|
A#|------------------------------------------------------------------------------|
F#|------------------------------------------------------------------------------|
C#|-----------------6---4-----------------10-10-9--------------------------------|
G#|-----------------7---5------------------8--8-7--------------------------------|
D#|-0--0-0-0--0-0-0---0---0--0-0-0--0-0-0----------------------------------------|
                                                                              

D#|------------------------------------------------------------------------------|
A#|------------------------------------------------------------------------------|
F#|------------------------------------------------------------------------------|
C#|------------------------------------------------------------------------------|
G#|---------------------------------------5-4------------------------------------|
D#|-0--0-0-0--0-0-0--0-0-0--0-0-0---3-5-6-----6-5--------------------------------|
                                                                              

D#|------------------------------------------------------------------------------|
A#|------------------------------------------------------------------------------|
F#|------------------------------------------------------------------------------|
C#|-----------------6---4--------------------------------------------------------|
G#|-----------------7---5--8-7-5-7---8-------------------------------------------|
D#|-0--0-0-0--0-0-0---0----6-5-3-5---6-------------------------------------------|
                                                                              

D#|------------------------------------------------------------------------------|
A#|------------------------------------------------------------------------------|
F#|------------------------------------------------------------------------------|
C#|--------------------------------------------------------------6-5-------------|
G#|-------------------------5-4------------------------------5-4-----------------|
D#|-0-0-0-0-0-0-0-0-0-3-5-6-----6-5--0-0-0-0-0-0-0-0-0-3-5-6---------------------|
                                                                           x4 

D#|------------------------------------------------------------------------------|
A#|------------------------------------------------------------------------------|
F#|------------------------------------------------------------------------------|
C#|-9----------------------------------------------------------------------------|
G#|-7---------------4b5r4---------------5-----8\7--5-8---------------------------|
D#|----0-0-0-0--5/6-------5-3--0-0-0-0--3-0-0-6\5--3-6---------------------------|
                                                                              

D#|------------------------------------------------------------------------------|
A#|------------------------------------------------------------------------------|
F#|------------------------------------------------------------------------------|
C#|-9----------------------------------------------------------------------------|
G#|-7---------------4b5r4--------------------------------------------------------|
D#|----0-0-0-0--5/6--------5-3--0-0-0-0-0-0-0-0-0-0-0-0-0-0-0-0------------------|
                                                                              

D#|------------------------------------------------------------------------------|
A#|------------------------------------------------------------------------------|
F#|------------------------------------------------------------------------------|
C#|-9----------------------------------------------------------------------------|
G#|-7---------------4b5r4---------------5-----8\7--5-8---------------------------|
D#|----0-0-0-0--5/6-------5-3--0-0-0-0--3-0-0-6\5--3-6---------------------------|
                                                                              

D#|------------------------------------------------------------------------------|
A#|------------------------------------------------------------------------------|
F#|------------------------------------------------------------------------------|
C#|-9----------------------------------------------------------------------------|
G#|-7---------------4b5r4------8-7-5-7---6--5------------------------------------|
D#|----0-0-0-0--5/6-------5-3--6-5-3-5---4--3------------------------------------|
                                                                              

D#|------------------------------------------------------------------------------|
A#|------------------------------------------------------------------------------|
F#|------------------------------------------------------------------------------|
C#|------------------------------------------------------------------------------|
G#|-4-4-4-4-4-4-4-4-4-4-4-4-4-4-4-4----4-------------5-------------4-------------|
D#|-2-2-2-2-2-2-2-2-2-2-2-2-2-2-2-2----2-2-2-2-2-2-2-3-3-3-3-3-3-3-2-2-2-2-2-2---|
                                                                              

D#|------------------------------------------------------------------------------|
A#|------------------------------------------------------------------------------|
F#|------------------------------------------------------------------------------|
C#|------------------------------------------------------------------------------|
G#|---5-------------7-------------8-------------7-------------8------------------|
D#|-2-3-3-3-3-3-3-4-5-5-5-5-5-5-5-6-6-6-6-6-6-6-5-5-5-5-5-5-5-6-6-6-6-6-6-6------|
                                                                              

D#|------------------------------------------------------------------------------|
A#|------------------------------------------------------------------------------|
F#|------------------------------------------------------------------------------|
C#|------------------------------------------------------------------------------|
G#|-4-------------5-------------4-------------5-------------7--------------------|
D#|-2-2-2-2-2-2-2-3-3-3-3-3-3-3-2-2-2-2-2-2-2-3-3-3-3-3-3-3-5-5-5-5-5-5-5--------|
                                                                              

D#|------------------------------------------------------------------------------|
A#|------------------------------------------------------------------------------|
F#|------------------------------------------------------------------------------|
C#|------------------------------------------------------------------------------|
G#|-8-------------7----------------8-7-5--7--8-----------------------------------|
D#|-6-6-6-6-6-6-6-5-5-5-5-5-5-5-5--6-5-3--5--6-----------------------------------|
                                                                              

D#|------------------------------------------------------------------------------|
A#|---3-------------3--------------3-------------3-------------------------------|
F#|-6---6-----6-5-6---6-----6-5--6---6-----6-5-6---6-----6-5---------------------|
C#|-------5-4-----------5-4------------5-4-----------5-4-------------------------|
G#|------------------------------------------------------------------------------|
D#|------------------------------------------------------------------------------|
  2nd guitar                                                                  

D#|------------------------------------------------------------------------------|
A#|----6-------------6--------------6-------------6------------------------------|
F#|--9---9-----9-8-9---9-----9v---9---9-----9-8-9---9-8-7-6-5--------------------|
C#|--------7-6-----------8-7------------7-6--------------------------------------|
G#|------------------------------------------------------------------------------|
D#|------------------------------------------------------------------------------|
                                                                              

D#|------------------------------------------------------------------------------|
A#|----3-------------3-------------3-------------3-------------------------------|
F#|--6---6-----6-5-6---6-----6v--6---6-----6-5-6---6-----6v----------------------|
C#|--------5-4-----------5-4-----------5-4-----------5-4-------------------------|
G#|------------------------------------------------------------------------------|
D#|------------------------------------------------------------------------------|
                                                                              

D#|------------------------------------------------------------------------------|
A#|----6-------------6-------------6--------------8/10---------------------------|
F#|--9---9-----9-8-9---9-----9v--9---9-----9-8-7---------------------------------|
C#|--------7-6-----------8-7-----------7-6---------------------------------------|
G#|------------------------------------------------------------------------------|
D#|------------------------------------------------------------------------------|
                                                                              

D#|------------------------------------------------------------------------------|
A#|------------------------------------------------------------------------------|
F#|------------------------------------------------------------------------------|
C#|------------------------------------------------------------------------------|
G#|-8-7-5-7--8-------------------------------------------------------------------|
D#|-6-5-3-5--6-------------------------------------------------------------------|
                                                                              

D#|------------------------------------------------------------------------------|
A#|------------------------------------------------------------------------------|
F#|------------------------------------------------------------------------------|
C#|------------------------------------------------------------------------------|
G#|---4-3-5---4---------------------------------------4-3-5---4------------------|
D#|-2-----3-0-2--2--2-2-2--2-2-2--2-2-2--2-2-2--2-2-2-----3-0-2--2--2-2-2--2-2-2-|
  solo rhythm                                                                 

D#|------------------------------------------------------------------------------|
A#|------------------------------------------------------------------------------|
F#|------------------------------------------------------------------------------|
C#|-5----------------------------------------------------------------------------|
G#|-3---4-3-5---4---------------------------------------4-3-5---4----------------|
D#|---2-----3-0-2--2--2-2-2--2-2-2--2-2-2--2-2-2--2-2-2-----3-0-2--2--2-2-2------|
                                                                              

D#|------------------------------------------------------------------------------|
A#|------------------------------------------------------------------------------|
F#|------------------------------------------------------------------------------|
C#|-------5----------------------------------------------------------------------|
G#|-------3----------------------------------------------------------------------|
D#|-2-2-2------------------------------------------------------------------------|
                                                                              

D#|------------------------------------------------------------------------------|
A#|------------------------------------------------------------------------------|
F#|------------------------------------------------------------------------------|
C#|-6---------------6---------------7---------------7---------------6------------|
G#|-4--4-4-4-4-4-4--4--4-4-4-4-4-4--5--5-5-5-5-5-5--5--5-5-5-5-5-5--4--4-4-4-4---|
D#|------------------------------------------------------------------------------|
                                                                              

D#|------------------------------------------------------------------------------|
A#|------------------------------------------------------------------------------|
F#|------------------------------------------------------------------------------|
C#|------6----------------------------------------------6------------------------|
G#|-4-4--4--4-4-4-4-4-4--5---------------5--------------4--4-4-4-4-4-4-----------|
D#|----------------------3--3-3-3-3-3-3--3--3-3-3-3-3-3--------------------------|
                                                                              

D#|------------------------------------------------------------------------------|
A#|------------------------------------------------------------------------------|
F#|------------------------------------------------------------------------------|
C#|-6---------------7---------------7---------------6---------------6------------|
G#|-4--4-4-4-4-4-4--5--5-5-5-5-5-5--5--5-5-5-5-5-5--4--4-4-4-4-4-4--4--4-4-4-4---|
D#|------------------------------------------------------------------------------|
                                                                              

D#|------------------------------------------------------------------------------|
A#|------------------------------------------------------------------------------|
F#|------------------------------------------------------------------------------|
C#|------------------------------------------------------------------------------|
G#|-4-4--5-4---4-----------------------------------------------------------------|
D#|------3-2-0-2-----------------------------------------------------------------|
                                                                              

D#|------------------------------------------------------------------------------|
A#|------------------------------------------------------------------------------|
F#|------------------------------------------------------------------------------|
C#|------------------------------------------------------------------------------|
G#|---------------------------------------5-4------------------------------------|
D#|-0--0-0-0--0-0-0--0-0-0--0-0-0---3-5-6-----6-5--------------------------------|
                                                                              

D#|------------------------------------------------------------------------------|
A#|------------------------------------------------------------------------------|
F#|------------------------------------------------------------------------------|
C#|-----------------6---4------------------10-10-9-------------------------------|
G#|-----------------7---5-------------------8--8-7-------------------------------|
D#|-0--0-0-0--0-0-0---0---0--0-0-0--0-0-0----------------------------------------|
                                                                              

D#|------------------------------------------------------------------------------|
A#|------------------------------------------------------------------------------|
F#|------------------------------------------------------------------------------|
C#|------------------------------------------------------------------------------|
G#|---------------------------------------5-4------------------------------------|
D#|-0--0-0-0--0-0-0--0-0-0--0-0-0---3-5-6-----6-5--------------------------------|
                                                                              

D#|------------------------------------------------------------------------------|
A#|------------------------------------------------------------------12-12-11----|
F#|--------------------------------------------------------10-10-9-8-------------|
C#|-----------------6---4--------------------------9-9-8-7-----------------------|
G#|-----------------7---5------------------8-8-7-6-------------------------------|
D#|-0--0-0-0--0-0-0---0---0--0-0-0--0-0-0----------------------------------------|
                                                                              

D#|------------------------------------------------------------------------------|
A#|-10---------------------------------------------------------------------------|
F#|------------------------------------------------------------------------------|
C#|------------------------------------------------------------------------------|
G#|------------------------------------------------------------------------------|
D#|------------------------------------------------------------------------------|
                                                                              

D#|------------------------------------------------------------------------------|
A#|------------------------------------------------------------------------------|
F#|------------------------------------------------------------------------------|
C#|--------------------------------------------------------------6-5-------------|
G#|-------------------------5-4------------------------------5-4-----------------|
D#|-0-0-0-0-0-0-0-0-0-3-5-6-----6-5--0-0-0-0-0-0-0-0-0-3-5-6---------------------|
                                                                         x6   

D#|------------------------------------------------------------------------------|
A#|------------------------------------------------------------------------------|
F#|------------------------------------------------------------------------------|
C#|-9----------------------------------------------------------------------------|
G#|-7---------------4b5r4---------------5-----8\7--5-8---------------------------|
D#|----0-0-0-0--5/6-------5-3--0-0-0-0--3-0-0-6\5--3-6---------------------------|
                                                                              

D#|------------------------------------------------------------------------------|
A#|------------------------------------------------------------------------------|
F#|------------------------------------------------------------------------------|
C#|-9----------------------------------------------------------------------------|
G#|-7--------------4b5r4---------------------------------------------------------|
D#|---0-0-0-0--5/6-------5-3--0-0-0-0-0-0-0-0-0-0-0-0-0-0-0-0--------------------|
                                       play above 2 bars 3x                   

D#|------------------------------------------------------------------------------|
A#|------------------------------------------------------------------------------|
F#|------------------------------------------------------------------------------|
C#|-9----------------------------------------------------------------------------|
G#|-7--------------4b5r4---------------5-----8\7--5-8----------------------------|
D#|---0-0-0-0--5/6-------5-3--0-0-0-0--3-0-0-6\5--3-6----------------------------|
                                                                              

D#|------------------------------------------------------------------------------|
A#|------------------------------------------------------------------------------|
F#|------------------------------------------------------------------------------|
C#|-9----------------------------------------------------------------------------|
G#|-7--------------4b5r4------8-7-5-7--6-----------------------------------------|
D#|---0-0-0-0--5/6-------5-3--6-5-3-5--4-----------------------------------------|
                                                                              

D#|------------------------------------------------------------------------------|
A#|------------------------------------------------------------------------------|
F#|------------------------------------------------------------------------------|
C#|------------------------------------------------------------------------------|
G#|----------8-7-6-----------8-7-6-----------8-7-6-----------8-7-6---------------|
D#|-3-3-3-3--6-5-4--3-3-3-3--6-5-4--3-3-3-3--6-5-4--3-3-3-3--6-5-4---------------|
                                                                              

D#|------------------------------------------------------------------------------|
A#|------------------------------------------------------------------------------|
F#|------------------------------------------------------------------------------|
C#|------------------------------------------------------------------------------|
G#|-5-4---3-4---5-4---3-4---5-4---3-----------8-7-6--5-4---3-4---5-4---3-4---5---|
D#|-3-2-0-1-2-0-3-2-0-1-2-0-3-2-0-1--3-3-3-3--6-5-4--3-2-0-1-2-0-3-2-0-1-2-0-3---|
 GRAVE!!!!!!!!!                                                               

D#|------------------------------------------------------------------------------|
A#|------------------------------------------------------------------------------|
F#|------------------------------------------------------------------------------|
C#|------------------------------------------------------3--------------3-3------|
G#|-4---3-----------8-7-6------------8-7-6---5-4---3-4---1---5-4---3-4--1-1------|
D#|-2-0-1--3-3-3-3--6-5-4---3-3-3-3--6-5-4---3-2-0-1-2-0-----3-2-0-1-2-----------|
                                                                              

D#|------------------------------------------------------------------------------|
A#|------------------------------------------------------------------------------|
F#|------------------------------------------------------------------------------|
C#|-------------3--------------3-3---------------------------3-------------------|
G#|-5-4---3-4---1---5-4---3-4--1-1---------------------------1-------------------|
D#|-3-2-0-1-2-0-----3-2-0-1-2--------3-3-2-2-0-0-1-1-2-2-0-0----3-3-2-2-0-0-1-1--|
                                                                              

D#|------------------------------------------------------------------------------|
A#|------------------------------------------------------------------------------|
F#|------------------------------------------------------------------------------|
C#|---3-3---------------------------3---------------------3-3--------------------|
G#|---1-1---------------------------1---------------------1-1--------------------|
D#|-2-------3-3-2-2-0-0-1-1-2-2-0-0-----3-3-2-2-0-0-1-1-2------------------------|
                                                                              

D#|------------------------------------------------------------------------------|
A#|------------------------------------------------------------------------------|
F#|------------------------------------------------------------------------------|
C#|------------------------------------------------------------------------------|
G#|----------8-7--6-5------------------------------------------------------------|
D#|-3-3-3-3--6-5--4-3------------------------------------------------------------|
                                                                              

Related for Enter The Grave tab