Song name
# A B C D E F G H I J K L M N O P Q R S T U V W X Y Z

Evile - Man Against Machine tab

band:  Evile
song:  Man Against Machine (intro)
album:  Enter The Grave (2007)


Tabbed by Thrash-Cat


- Tuning: E flat

- Play each line twice each (except the last chord)

- Let ring wherever possible


Eb|---0-----0----------0-----0------0-----0----------0-----0----------------------|
Bb|-----6-----6------4-----4---4------6-----6------4-----4---4--------------------|
Gb|-8-----8-----8--7-----7--------8-----8-----8--7-----7--------------------------|
Db|-------------------------------------------------------------------------------|
Ab|-------------------------------------------------------------------------------|
Eb|-------------------------------------------------------------------------------|

Eb|---0-------------------0-----------0-------------------0-----------------------|
Bb|-----4-----4-------2-------2---------4-----4-------2-------2-------------------|
Gb|-6-----6-----6---4-------4-----4-6-----6-----6---4-------4-----4---------------|
Db|---------6-----5-----5-------5-----------6-----5-----5-------5-----------------|
Ab|-------------------------------------------------------------------------------|
Eb|-------------------------------------------------------------------------------|

Eb|-------0-----------0-----------0--------------------0--------------------------|
Bb|-----0-----0-----0-----0---0-----------0--------------0------------------------|
Gb|---8-----8-----8-----8-------8-------2---2--------2-----2----------------------|
Db|-6-----------6-----------6---------3-------3----3---------3--------------------|
Ab|---------------------------------5------------5-------------5------------------|
Eb|-------------------------------------------------------------------------------|

Eb|--------------------------------------------------|--0-------------------------|
Bb|---------1-----------1-----------0-----------0----|--0-------------------------|
Gb|-----3-----3-----3-----3-----3-----3-----3-----3--|--2-------------------------|
Db|---2---2-------2---2-------7---7-------7---7------|----------------------------|
Ab|-0-----------0-----------0-----------0------------|----------------------------|
Eb|--------------------------------------------------|----------------------------|
Tap to rate this tab
# A B C D E F G H I J K L M N O P Q R S T U V W X Y Z