Song name
# A B C D E F G H I J K L M N O P Q R S T U V W X Y Z

Evita - Cracks In The Wall tab

Tabbed by Mark
Email: midnightwinter@live.com


I noticed in the guitar pro version, it didn't have the fade-in intro of the song. 
So I tried to figure it out myself.
All ear transcribed. So there might be a mistake or more... 
But this is how I think it's played. It's pretty close.
Correct me if I am wrong.


e|---------------9--7-7-7--|-------------------------|
B|--------9~---------------|---2--5--7/10--8~--------|
G|----7~-------------------|-------------------------|
D|-------------------------|-------------------------|
A|-------------------------|-------------------------|
E|-------------------------|-------------------------|



e|-------------2~----2--2-2|----------4~----15b-15-15|
B|--0---4~-----------------|------5~-----------------|
G|-------------------------|---6~--------------------|
D|-------------------------|-------------------------|
A|-------------------------|-------------------------|
E|-------------------------|-------------------------|

x6
Tap to rate this tab
# A B C D E F G H I J K L M N O P Q R S T U V W X Y Z