Song name
# A B C D E F G H I J K L M N O P Q R S T U V W X Y Z

Evolution - Killer Instinct Intro Music tab

E------------------------------------|
B------------------------------------|
G------------------------------------|
D-----------------2-----0---0--0h2---|
A-2-2-2-2-2-2-2-2-2-2-2-0-2-0--------|
D-2-2-2-2-2-2-2-2---2-2---2---2------|

E------------------------------------|
B------------------------------------|
G------------------------------------|
D-----------------0---0h2------------|
A-2-2-2-2-2-2-2-2-0-2----------------|
D-2-2-2-2-2-2-2-2---2----------------|

Melody
E-----3--7--5-3-2--------------------------------------------|
B--5--------------0-3-5----------12-----------15--17---------|
G-----------------------------12----14-14p12----------16-----|
D--------------------------14--------------------------------|
A------------------------------------------------------------|
D------------------------------------------------------------|

E----------------------------------------------10--12--------|
B--10--8-------10--8--------8-8--7----10--8p7----------12----|
G---------7-----------9--------------------------------------|
D------------------------------------------------------------|
A------------------------------------------------------------|
D------------------------------------------------------------|
Tap to rate this tab
# A B C D E F G H I J K L M N O P Q R S T U V W X Y Z