Song name
# A B C D E F G H I J K L M N O P Q R S T U V W X Y Z

Ewa Farna - Ticho-cicho tab

			    Ewa Farna - Ticho
-------------------------------------------------------------------------------
Tabbed by: Wlasqy
Email:

Tuning:
  Es
e|----------------------------------------------------------------------------|
B|----------------------------------------------------------------------------|
G|--8-8----8-8----8-----------------------------------------------------------|
D|--8-8----8-8----8-----------------------------------------------------------|
A|--6-6----6-6----6-----------------------------------------------------------|
E-----------------------------------------------------------------------------|

Chorus
  G        Es        B        F            Es
e|---------------------------------------------------------------------------|
B|---------------------------------------------------------------------------|
G|---------8--------------------------------8-8----8-8----8-8---8------------|
D|5--------8--8X------8--------3------------8-8----8-8----8-8---8------------|
A|5--8X----6----------8--8X----3--8X--------6-6----6-6----6-6---6------------|
E|3-------------------6--------1---------------------------------------------|

e|----------------------------------------------------------------------------|
B|------------------------3-----------------------------------------3---------|
G|-----3---3---3------5-----5-3------------3---3---3---3-----3----5---5-------|3X
D|--5x---5---5---5--3---3-------5-------5x---5---5---5---5-3---(3)------------|
A|----------------------------------------------------------------------------|
E|----------------------------------------------------------------------------|

e|---------------------------------------------------------------------------|
B|---------------------------------------------------------------3-----------|
G|-----3---3---3---2---2---3---3---------3---3---3---3-----3---5---5----2X---|
D|--5x---5---5---5---4---4---5---5----5x---5---5---5---5-3---(3)-------------|
A|---------------------------------------------------------------------------|
E|---------------------------------------------------------------------------|

e|------------------------|
B|------------------------|
G|--8-8---8-8---8---------|
D|--8-8---8-8---8---------| Repeating Chorus  Then *PLAY* G , F
A|--6-6---6-6---6---------|
E|------------------------|

Breakdown
e|---------------------------------------------------------------------------|
B|---------------------------------------------------------------------------|
G|--8-8---8--8--8-7-7--7--7--7-5-5--5--5--5----------------------------------|
D|--8-8---8--8--8-7-7--7--7--7-5-5--5--5--5-8-8------------------------------|
A|--6-6---6--6--6-5-5--5--5--5-3-3--3--3--3-8-8------------------------------|
E|------------------------------------------6-6------------------------------|



************************************

| /   slide up
| \   slide down
| h   hammer-on
| p   pull-off
| ~   vibrato
| +   harmonic
| x   Mute note
| b   Bend
| pb  Pre-bend
| br  Bend release
| pbr Pre-bend release
| brb Bend release bend

************************************
Tap to rate this tab
 
# A B C D E F G H I J K L M N O P Q R S T U V W X Y Z