Song name
# A B C D E F G H I J K L M N O P Q R S T U V W X Y Z

Ewa Farna - Nie Przegap tab

-------------------------------------------------------------------------------
                               NIE PRZEGAP - Ewa Farna
-------------------------------------------------------------------------------
Tabbed by: Grzegorz Graczyk
Email: gregory90@gmail.com

Tuning
Guitar 1: Standard
Guitar 2: Drop D

Intro:
e|------------------------------------------------| 
B|------------------------------------------------|
G|---------9----------------------------7---6-----|
D|-------7----------7-------7-------6-7---7---7---|  
A|---7h9----------7-------7-----7-7---------------|
E|------------9-9------10-------------------------|
 |                                                |  
e|------------------------------------------------| 
B|------------------------------------------------|  
G|------------------------------------------------|  
D|------------------------------------------------|  
A|------------------------------------------------|  
D|------------------------------------------------|  

Verse:
e|------------------------------------------------|  
B|------------------------------------------------|  
G|---------9----------------------------7---6-----|  
D|-------7----------7-------7-------6-7---7---7---|  
A|---7h9----------7-------7-----7-7---------------|  
E|------------9-9------10-------------------------|  
 |                                                |  
e|------------------------------9-----------------| 
B|---10-------9-----------------10----------------|  
G|---------------------11-------9-----------------|  
D|------------------------------------------------|  
A|------------------------------------------------|  
D|------------------------------------------------|  
                                                   
e|------------------------------------------------|  
B|------------------------------------------------|  
G|---------9----------------------------7---6-----|  
D|-------7----------7-------7-------6-7---7---7---|  
A|---7h9----------7-------7-----7-7---------------|  
E|------------9-9------10-------------------------|  
 |                                                |  
e|------------------------------------------------|  
B|---10-------9-----------------9-----------------|  
G|---------------------11-------------------------|  
D|------------------------------------------------|  
A|------------------------------------------------|  
D|------------------------------------------------|  

Chorus Pt1:
e|--------------9----9----|------------9-12-12-10-9---------|
B|-----9--10-12---12---10-|-----10--12--------------12-10---|
G|---9--------------------|---9-----------------------------|
D|------------------------|---------------------------------|
A|------------------------|---------------------------------|
E|------------------------|---------------------------------|
 |                                                          |
e|------------------------|---------------------------------| 
B|------------------------|---------------------------------|
G|------------------------|---------------------------------|
D|---2----------4---------|---0----------2------------------| 
A|---2-x8-------4-x8------|---0-x8-------2-x8---------------|  
D|---2----------4---------|---0----------2------------------| 

Chorus Pt2:
e|--------------9----9----|---------------|------|
B|-----9--10-12---12---10-|---15-14-------|-x8---|
G|---9--------------------|---------16-14-|------|
D|------------------------|----------------------|
A|------------------------|----------------------|
E|------------------------|----------------------|
 |                                               |
e|------------------------|----------------------| 
B|------------------------|----------------------|
G|------------------------|----------------------|
D|---2----------4---------|---0----------0-------| 
A|---2-x8-------4-x8------|---0-x8-------0-x8----|  
D|---2----------4---------|---0----------0-------| 

Fill:
e|-------------|
B|-------------|
G|-------------|
D|-------------|
A|-------------|
E|-------------|
 |             |
e|-------------|
B|-------------|
G|-------------|
D|---x-x-x-x---|
A|---x-x-x-x---|
D|---x-x-x-x---|


Intro       x2
Verse       x4
Chorus Pt1  x1
Chorus Pt2  x1
Intro       x1
Verse       x4
Chorus Pt1  x2
Chorus Pt2  x1
Chorus Pt1  x1
Chorus Pt2  x1
Intro       x2
Fill        x1
Chorus Pt1  x2
Chorus Pt2  x1



************************************

| /   slide up
| \   slide down
| h   hammer-on
| p   pull-off
| ~   vibrato
| +   harmonic
| x   Mute note
| b   Bend
| pb  Pre-bend
| br  Bend release
| pbr Pre-bend release
| brb Bend release bend

************************************
Tap to rate this tab
# A B C D E F G H I J K L M N O P Q R S T U V W X Y Z