Song name
# A B C D E F G H I J K L M N O P Q R S T U V W X Y Z

Ewan Mcgregor - Come What May tab

INTRO: Repeat 2x
e--------------------------------------------------------------------------|
b------1-----1------1-----1------1-----1------1-----1----------------------|
g----0-----0------0-----0------0-----0------0-----0------------------------|
d--------------------------------------------------------------------------|
a--3-----3------2-----2------0-----0------0-----0--------------------------|
E--------------------------------------------------------------------------|

VERSE 1
e------3-------3-------3---2---2-------3-------3-------3--------3---------3-|
b------1-------1-------1---1---1-------1-------1-------1--------1---------1-|
g----0---0---0---0---0---0---0---0---0---0---0---0---0---0---0-----0---0----|
d----------------------------------3-------3--------------------------------|
a--3-------3-------2-------------------------------3-------2---------0------|
E---------------------------------------------------------------------------|
       Never knew......like this...............the sky before..............

e--------3-------3---2---2-------3-------3-------3-------3-------3-------3-|
b--------1-------1---1---1-------1-------1-------1-------1-------1-------1-|
g--0---0---0---0---0---0---0---0---0---0---0---0---0---0---0---0---0---0---|
d------------0---------------3-------3-------------------------------------|
a----0---------------------------------------3-------2-------0-------0-----|
E--------------------------------------------------------------------------|
.....vanish.....your kiss...................more than this..........heart..

e-------3---2---2-------3-------3-------0-------0-------0-------0-------2---|
b-------1---1---1-------1-------1-------1-------1-------1-------1-------1---|
g-0---0---0---0---0---0---0---0---0---0---0---0---0---0---0---0---0---0---0-|
d-------------------3-------3---------------------------------------0-------|
a---0-------------------------------3-------2-------0-------0---------------|
E---------------------------------------------------------------------------|
..hear it say..............give you everything......seasons........winter..

e-2---2---3------------------------0-------0-------0-------0-------0-------|
b-1---1---1------------------------1-------1-------5-------3-------1-------|
g---0---0------------------------0---0---0---0---0---0---0---0---0---0-----|
d--------------------------------------------------------------------------|
a------------------------------3-------3-------7-------5-------3-----------|
E--------------------------------------------------------------------------|
..spring..(pause here)..but Ill love you......end.....of.....time.........

CHORUS(/ = poke)
e------0-------0-------0-------0-------0-------0-------0-------0-------0---|
b-----0/1------1-------1-------1------0/1------1-------1-------1-------1---|
g----0---0---0---0---0---0---0---0---0---0---0---0---0---0---0---0---0-----|
d------------------------------------------------------------------2-----2-|
a--2-------0-------0-------0-------2-------0-------0-------0---------------|
E--------------------------------------------------------------------------|
..Come what may...................come what may....................I....will

e-----0-------0-------0-------0-------0------------------------------------|
b-----1-------1-------5-------3-------3------------------------------------|
g-------0---0---0---0---0---0---0---0--------------------------------------|
d-0------------------------------------------------------------------------|
a---3-----3-------7-------5-------3----------------------------------------|
E--------------------------------------------------------------------------|
...........until...my...dying....day.

Continue throughout song
Tap to rate this tab
# A B C D E F G H I J K L M N O P Q R S T U V W X Y Z