Song name
# A B C D E F G H I J K L M N O P Q R S T U V W X Y Z

Ewert And The Two Dragons - Burning Bush chords

Highlighted       Show chord diagrams
Ewert and the two Dragons
Burning Bush


Algus: 
     D# Cm   G        D# Cm   G  
E:--------------------------------------|
B:-----------3----------------3---------|
G:---8--5-------4-----8--5-------4------|
D:---8--5----5--5-----8--5----5--5------|
A:---6--3----5--------6--3----5---------|
E:--------------3----------------3------|


Salm:
     D#      Cm       G       F
E:--------------------------------------|
B:--------------------3-------0---------|
G:---8--8----5--5--------4-------2------| x2
D:---8--8----5--5-----5--5----3--3------|
A:---6--6----3--3-----5-------3---------|
E:-----------------------3-------1------|
	

Refrään:
     C       Am       G       F
E:--------------------------------------|
B:-----------5--5-----3--3----0---------|
G:---9--9----5--5----------------2------|
D:---10-10------------5--5----3--3------|
A:--------------------5-------3---------|
E:---8--8----5--5--------3-------1------|

     C       Am       G       F
E:--------------------------------------|
B:-----------5--5-----3-------0---------|
G:---9--9----5--5--------4-------2------|
D:---10-10------------5--5----3--3------|
A:--------------------5-------3---------|
E:---8--8----5--5--------3-------1------|


algus
salm
refrään
algus x2
Tap to rate this tab
# A B C D E F G H I J K L M N O P Q R S T U V W X Y Z