Song name
# A B C D E F G H I J K L M N O P Q R S T U V W X Y Z

Ewert And The Two Dragons - Sailor Man chords

Highlighted       Show chord diagrams
-------------------------------------------------------------------------------
                             Sailor Man - Ewert and The Two Dragons
-------------------------------------------------------------------------------
Tabbed by: Jonathon H.

Tuning: Standard
Capo 4

Play this for the intro and the verses:

e|---------------------------------------------------------------------------|
B|---1------1------1------1------1------1------1----1-----1---1-----1----1---|
G|----0------0------0------0------0------0------0----2-----2---2-----2----2--|
D|-3------2---------------------------------------------3---------3----------| 
A|---------------0------2--------------------0------3---------3----------3---|
E|-----------------------------0------3--------------------------------------|

e|---------------------------------------------------------------------------|
B|-----1----1----------------------------------------------------------------|
G|------2-----2--------------------------------------------------------------|
D|--3------------------------------------------------------------------------|  x2
A|----------3----------------------------------------------------------------|
E|---------------------------------------------------------------------------|


(Play Intro)

If I was a sailor man
With you I'd sail and search for land
No panic, boundaries, no fear
Hands focused on the wheel I'd steer

E     F                       C
    Heart beating in a race
    Am                        C
No storm would take us down
  F                    C
Inspired by the place
     Am                   C
I'd never let you drown

  F                      C
I wouldn't wanna spend a day
             Am       C
Without this love

(Play Intro)
Oooh Oooh Oooh  x2

If I was a sailor man
With you I'd sail and search for land
No panic, boundaries, no fear
Hands focused on the wheel I'd steer

E      F                        C
     Heart beating in a race   (Sailor man...)
    Am                         C
No storm would take us down   (Sailor man...)
  F                     C
Inspired by the place   (Sailor man...)
    Am                    C
I'd never let you drown   (Sailor man...)

  F                       C
Heart beating in a race   (Sailor man...)
    Am                         C
No storm would take us down   (Sailor man...)
  F                     C
Inspired by the place   (Sailor man...)
    Am                    C
I'd never let you drown   (Sailor man...)) 

  F                      C
I wouldn't wanna spend a day
             Am       C
Without this love                      x4

(Drums)

F*  C*  Am*  C*   x2

  F*                     C*
I wouldn't wanna spend a day
             Am*      C*
Without this...                          x 4


  F*                     C*
Heart beating in a race
    Am*                       C*
No storm would take us down
  F*                   C*
Inspired by the place
    Am*                  C*
I'd never let you drown

  F                       C
Heart beating in a race   (Sailor man...)
    Am                         C
No storm would take us down   (Sailor man...)
  F                     C
Inspired by the place   (Sailor man...)
    Am                    C
I'd never let you drown   (Sailor man...)

  F                       C
Heart beating in a race   (Sailor man...)
    Am                         C
No storm would take us down   (Sailor man...)
  F                     C
Inspired by the place   (Sailor man...)
    Am                    C
I'd never let you drown   (Sailor man...)


(Play Intro)

I wouldn't wanna spend a day
Without this love




End


Chords:
E   -   022100
F   -   033210
C   -   332010
Am  -   002210
F*  -   033010
C*  -   032000
Am* -   002010
Tap to rate this tab
 
# A B C D E F G H I J K L M N O P Q R S T U V W X Y Z