Song name
# A B C D E F G H I J K L M N O P Q R S T U V W X Y Z

Ewert And The Two Dragons - Sailor Man tab

Tabbed by Jonathon H.
Improved upon by Adomas V.

Tuning: Standard
Capo: 4

The original tabs had some flaws, which I figured out by watching the vid of Ewert 
And The Two Dragons performing it live for Berling Sessions.

Through intro and verses:
e|--------------------------------------------------------------------------|
B|---1------1------1------1-----1------1------1----1-----1---1-----1----1---|
G|----0------0------0------0-----0------0------0----2-----2---2-----2----2--|
D|-3------2--------------------------------------------3---------0----------| 
A|---------------0------2-------------------0------3-------------3----------|
E|----------------------------0------3-----------------------1---------1----|

e|--------------------------------------------------------------------------|
B|-----1----1---------------------------------------------------------------|
G|------2-----2-------------------------------------------------------------|
D|--0-----------------------------------------------------------------------|  x2
A|--3-----------------------------------------------------------------------|
E|---------1----------------------------------------------------------------|

(Play Intro)

If I was a sailor man
With you I'd sail and search for land
No panic, boundaries, no fear
Hands focused on the wheel I'd steer

E7     Fmaj7                    C
    Heart beating in a race
    Am                        Gsus4
No storm would take us down
  Fmaj7                 C
Inspired by the place
     Am                   Gsus4
I'd never let you drown

  Fmaj7                   C
I wouldn't want to spend a day
             Am       Gsus4
Without this love

(Play Intro)
Oooh Oooh Oooh  x2

If I was a sailor man
With you I'd sail and search for land
No panic, boundaries, no fear
Hands focused on the wheel I'd steer

E7     Fmaj7                    C
     Heart beating in a race   (Sailor man...)
    Am                         Gsus4
No storm would take us down   (Sailor man...)
  Fmaj7                 C
Inspired by the place   (Sailor man...)
     Am                   Gsus4
I'd never let you drown   (Sailor man...)

  Fmaj7                 C
Heart beating in a race   (Sailor man...)
    Am                         Gsus4
No storm would take us down   (Sailor man...)
  Fmaj7                 C
Inspired by the place   (Sailor man...)
    Am                    Gsus4
I'd never let you drown   (Sailor man...)

  Fmaj7                 C
I wouldn't want to spend a day
             Am       Gsus4
Without this love                      x4

(Drums)

Fmaj7 Gsus4   x4

  Fmaj7                   Gsus4
I wouldn't want to spend a day
             Fmaj7   Gsus4
Without this...                          x 4


  Fmaj7                    Gsus4
Heart beating in a race
    Fmaj7                        Gsus4
No storm would take us down
  Fmaj7                    Gsus4
Inspired by the place
    Fmaj7                        Gsus4
I'd never let you drown

  Fmaj7                 C
Heart beating in a race   (Sailor man...)
    Am                         Gsus4
No storm would take us down   (Sailor man...)
  Fmaj7                 C
Inspired by the place   (Sailor man...)
    Am                    Gsus4
I'd never let you drown   (Sailor man...)

  Fmaj7                 C
Heart beating in a race   (Sailor man...)
    Am                         Gsus4
No storm would take us down   (Sailor man...)
  Fmaj7                 C
Inspired by the place   (Sailor man...)
    Am                    Gsus4
I'd never let you drown   (Sailor man...)


(Play Intro)

I wouldn't wanna spend a day
Without this love




End


Chords:
E7    -   020100
Fmaj7 -   033210
C     -   032010
Am    -   002210
Gsus4 -   320010
Tap to rate this tab
# A B C D E F G H I J K L M N O P Q R S T U V W X Y Z