Song name
# A B C D E F G H I J K L M N O P Q R S T U V W X Y Z

Ex Number 5 - Just Sit Back And Relax tab

First, I'd like to thank you, the one who found this tab, and
also, thanks for listening to Ex Number Five. They Kick A-S-S!

 lead;
-------------------------------2-0-2-0-2-0-2-0-2------X6?--------|
-2-5-2-5-2-5-2-0-2-5-2-0-2-5-2-----2-------2---------------------|
-----------------------------------------------------------------|
-----------------------------------------------------------------|
-----------------------------------------------------------------|
-----------------------------------------------------------------|
rythm;
------------------------------------X6?--|
-----------------------------------------|
-----------------------------------------|
----------4-4----------------------------|
-444-2-22-2-2-424-4----------------------|
-222-0-00-----202-2----------------------|then-play-all-but last chord in
                           0:59   chunks, then...
---------------------------|C2:----------------------------------|
--------------------X?-----|--------------------------------2-2--|
------------------------1--|-----------------X2---------2-1------|
--6666-9999-------------2--|---------66666666--666999--2---------|
--4444-7777-44444444----2--|-x44x77x-44444444--444777-0----------|
------------22222222----0--|-x22x55x-----------------------------|
                                                    (intro, then..)
-----------------------------------------------------------------|
-----------------------------------------------------------------|
----------------------1~~~---------------------------------------|
-----------------------------------------------------------------|
---2-4``--------------(back-to-C2,-then...)----------------------|
---0-2``---------------------------------------------------------|
 solo; 2:14  (clean)
---------------------0------------------------0-------------------|X4
-----------------------0------------------------0-----------------|
--------------------------------------------6-----6-6-----2-1-----|
--------------------------7-6----6-----6--6-6-------6-2-2-----2---|
-2-4---4--4--4-4/6/7------7-7--7----7-----7-4-------4-0-----------|
-0-2-2-2-20-02-2/4/5------5-4--4---44-4---4-----------------------|
 3:10
----------------------------------0----|-----X4-----0-------------|X2
------------------------------------0--|-------------0------------|
---------------------------------------|----------6---6-6----2-1--|
--------------------------------7------|-666----6-6-----6-2-2---2-|
-4-4--4-4-4--4-4-4--4-4-4-4-4-6-7------|-777----7-4-----4-0-------|
-2-2--0-2-2--0-2-2--0-2-2-2-2-4-5------|-444----4-----------------|

-----------------------------------------------------------------|
-----------------------------------------------------------------|
---1~~~~---------------------------------------------------------|
---4~~~~---------------------------------------------------------|
---4~~~~---------------------------------------------------------|
-0-2~~~~---------------------------------------------------------|
Tap to rate this tab
# A B C D E F G H I J K L M N O P Q R S T U V W X Y Z