Song name
# A B C D E F G H I J K L M N O P Q R S T U V W X Y Z

Example - Change The Way You Kiss Me tab

-------------------------------------------------------------------------------
			     Change the way you kiss me - Example
-------------------------------------------------------------------------------
Tabbed by: Sebacelis
Email: Seba_celis177@hotmail.com


Tuning:Standard

e|---------------------------------------------------------------------------|
B|----------------------------------------------8----8----10----10----12-----|
G|-------9-----9-----11-----9------11----------------------------------------|
D|---------------------------------------------------------------------------|
A|---------------------------------------------------------------------------|
E|---12----12-----12-----12----12------------8-----8----8-----8------8-------|



e|---------------------------------------------------------------------------|
B|-------5-----5----6----5----6------------8----8----10----10----12----------|
G|---------------------------------------------------------------------------|
D|---------------------------------------------------------------------------|
A|---------------------------------------------------------------------------|
E|----5-----5----5----5-----5-----------8----8-----8----8-----8--------------|

The whole song is the same, its very easy , just take you 5 minutes


Tap to rate this tab
 
# A B C D E F G H I J K L M N O P Q R S T U V W X Y Z