Song name
# A B C D E F G H I J K L M N O P Q R S T U V W X Y Z

Example - Wont Go Quietly tab

Standard Tuning: e,a,d,g,b,e



Intro

e|---------------------------------------------------------------------------|
B|----7--7----7------7--7---7------------------------------------------------|
G|----------7---7---------7---7----------------------------------------------|
D|---------------------------------------------------------------------------|
A|---------------------------------------------------------------------------|
E|---------------------------------------------------------------------------|

Verse/ Chorus
I play these two chords throughout the song: D and F#m.

While strumming the chords , I also use the the suspended second of the chords too. 
This just means lifting your pinky up and down on the b- string.


      D        D Dsus2 D        D Dsus2 D         D Dsus2 D        D Dsus2 D

e|---------------------------------------------------------------------------|
B|---7--7-----7-7-5-5--7--7-----7-7-5-5--7--7-----7-7-5-5--7--7----7-7-5-7-----------------------|
G|---7--7-----7-7-7-7--7--7-----7-7-7-7--7--7-----7-7-7-7--7--7----7-7-7-7-----------------------|
D|---7--7-----7-7-7-7--7--7-----7-7-7-7--7--7-----7-7-7-7--7--7----7-7-7-7-----------------------|
A|---5--5-----5-5-5-5--5--5-----5-5-5-5--5--5-----5-5-5-5--5--5----5-5-5-5-----------------------|
E|-------------------------------------------------------------------------

     F#m          F#m F#sus2 F#m      F#m F#sus2 F#m      F#m F#sus2 F#m    
e|-----------------------------------------------------------------------------------------------]
B|---10-10----10-10-9--9--10-10---10-10-9--9--10-10---10-10-9--9--10-10----10-10-9--10-----------|
G|---11-11----11-11-11-11-11-11---11-11-11-11-11-11---11-11-11-11-11-11----11-11-11-11-----------|
D|---11-11----11-11-11-11-11-11---11-11-11-11-11-11---11-11-11-11-11-11----11-11-11-11-----------|
A|---9--9-----9--9--9--9--9--9----9--9--9--9--9--9----9--9--9--9--9--9-----9--9--9---9-----------|
E|-----------------------------------------------------------------------------------------------|

Tap to rate this tab
 
# A B C D E F G H I J K L M N O P Q R S T U V W X Y Z