Song name
# A B C D E F G H I J K L M N O P Q R S T U V W X Y Z

Example - Changed The Way You Kiss Me tab

E|----------------------------------------------------------|
B|----------------------------------------------------------|
G|---------------------------------------16---5--5--7--5--7-|
D|---14--14--16--14--16--12--12--14--14---------------------|
A|------------------------------------------0--0--0--0--0---|
D|-14--14--14--14--14--12--12--12--12--12-------------------|


E|---------------------|
B|---------------------|
G|-------------------12|
D|---12--12--14--14----|  x4
A|---------------------|
D|-12--12--12--12--12--|

   
E|-------------------------------------------------------------|
B|-------------------------------------------------------------|
G|-------------------------------------------------------------|
D|-2222-22-22-2-2-2222-22-22-2-2-2222-22-22-2-2-2222-22-22-2-2-|
A|-2222-22-22-2-2-2222-22-22-2-2-2222-22-22-2-2-2222-22-22-2-2-|
D|-2222-22-22-2-2-2222-22-22-2-2-2222-22-22-2-2-2222-22-22-2-2-|
 pm**** ** ** * * **** ** ** * * **** ** ** * * **** ** ** * *
   
E|-------------------------------------------------------------|
B|-------------------------------------------------------------|
G|-------------------------------------------------------------|
D|-2222-22-22-2-2-2222-22-22-2-2-2222-22-22-2-2-2222-22-22-2-2-|
A|-2222-22-22-2-2-2222-22-22-2-2-2222-22-22-2-2-2222-22-22-2-2-|
D|-2222-22-22-2-2-2222-22-22-2-2-2222-22-22-2-2-2222-22-22-2-2-|
 pm**** ** ** * * **** ** ** * * **** ** ** * * **** ** ** * *
   
E|----------------------------------------------------------|
B|----------------------------------------------------------|
G|---------------------------------------16---5--5--7--5--7-|
D|---14--14--16--14--16--12--12--14--14---------------------|
A|------------------------------------------0--0--0--0--0---|
D|-14--14--14--14--14--12--12--12--12--12-------------------|


E|---------------------|
B|---------------------|
G|-------------------12|
D|---12--12--14--14----|  x4
A|---------------------|
D|-12--12--12--12--12--|

  
E|----------------------------------------------------------|
B|----------------------------------------------------------|
G|---------------------------------------16---5--5--7--5--7-|
D|---14--14--16--14--16--12--12--14--14---------------------|
A|------------------------------------------0--0--0--0--0---|
D|-14--14--14--14--14--12--12--12--12--12-------------------|


E|---------------------|
B|---------------------|
G|-------------------12|
D|---12--12--14--14----|  x4
A|---------------------|
D|-12--12--12--12--12--|

   
E|------------------------------------------------------|
B|------------------------------------------------------|
G|------------------------------------------------------|
D|------------------------------------------------------|
A|------------------------------------------------------|
D|-14b^^^^^^^^^^^^^^^^^^^^^^^17r^^^^^^^^^^^^^^^^^^^^^14-|

  
E|----------------------------------------------------------|
B|----------------------------------------------------------|
G|---------------------------------------16---5--5--7--5--7-|
D|---14--14--16--14--16--12--12--14--14---------------------|
A|------------------------------------------0--0--0--0--0---|
D|-14--14--14--14--14--12--12--12--12--12-------------------|


E|---------------------|
B|---------------------|
G|-------------------12|
D|---12--12--14--14----|  x4
A|---------------------|
D|-12--12--12--12--12--|
Tap to rate this tab
# A B C D E F G H I J K L M N O P Q R S T U V W X Y Z