Song name
# A B C D E F G H I J K L M N O P Q R S T U V W X Y Z

Example - Playing In The Shadows tab

Basic Tab - roughly done but you'll get the gist, quite easy so enjoy!


-----------------------------------------------------------------------------
                        Playing on the Shadows - Example
-----------------------------------------------------------------------------

Tabbed by: Will

Tuning: Normal

Intro:

e|--------------------------------------------------------------------------|
B|--------------------------------------------------------------------------|
G|--------------------------------------------------------------------------|
D|-----8---8---8---8---8---8------9----9---8---8---8---8---8---8----9---9---|
A|---6---6---6---6---6---6---/-11---11---6---6---6---6---6---6---/-11---11--|
E|--------------------------------------------------------------------------|

Verse:

e|--------------------------------------------------------------------------|
B|--------------------------------------------------------------------------|
G|--------------------------------------------------------------------------|
D|-----8---8---8---8---8---8------9----9---8---8---8---8---8---8----9---9---|
A|---6---6---6---6---6---6---/-11---11---6---6---6---6---6---6---/-11---11--|
E|--------------------------------------------------------------------------|

e|--------------------------------------------------------------------------|
B|--------------------------------------------------------------------------|
G|--------------------------------------------------------------------------|
D|-----8---8---8---8---8---8------9----9---6---6---6---6---6---6---6---6----|
A|---6---6---6---6---6---6---/-11---11---4---4---4---4---4---4---4---4------|
E|--------------------------------------------------------------------------|
                                Repeat
Chorus:                  

e|--------------------------------------------------------------------------|
B|--------------------------------------------------------------------------|
G|--------------------------------------------------------------------------|
D|-----9---9---9---9---9---9---9---9---8--8---8---8---8---8---8-------------|
A|---6---6---6---6---6---6---6---6---6---6---6---6---6---6--6---------------|
E|--------------------------------------------------------------------------|
                         Repeat and then go back into the verse



************************************

| /   slide up
| \   slide down
| h   hammer-on
| p   pull-off
| ~   vibrato
| +   harmonic
| x   Mute note
| b   Bend
| pb  Pre-bend
| br  Bend release
| pbr Pre-bend release
| brb Bend release bend

************************************
Tap to rate this tab
# A B C D E F G H I J K L M N O P Q R S T U V W X Y Z