Song name
# A B C D E F G H I J K L M N O P Q R S T U V W X Y Z

Example - One Way Mirror tab

Off his latest album, The Evolution Of Man.
Intro

e|---------------------------------------------------------------------------|
B|---------------------------------------------------------------------------|
G|---------------------------------------------------------------------------|
D|----9-11-11h13p11-11-9------------11h13p11---14-13-------------------------|
A|-11--------------------11---11-11------------------11----------------------|
E|---------------------------------------------------------------------------|



e|---------------------------------------------------------------------------|
B|---------------------------------------------------------------------------|
G|---------------------------------------------------------------------------|
D|--11h13p11--11-9------11h13p11--11---9-14----------------------------------|
A|-----------------11--------------------------------------------------------|
E|---------------------------------------------------------------------------|
Tap to rate this tab
 
# A B C D E F G H I J K L M N O P Q R S T U V W X Y Z