Song name
# A B C D E F G H I J K L M N O P Q R S T U V W X Y Z

Example - Snakeskin tab

-------------------------------------------------------------------------------
                             Snakeskin - Example
-------------------------------------------------------------------------------
Tabbed by: Mark Glozier

Tuning: EADGBE

e|-----------------------------------------------------------------------------|
B|-----------------------------------------------------------------------------|
G|---------9------------------------9-----------------5------------------------|
D|------9-----9------------------9-----9-----------5-----5----------5---7------|
A|--7-------------------------0-------------------------------------3---5------|
E|----------------------------------------------8------------------------------|


  Solo guitar starts:

e|------------12----------------------------12-------------------------------|
B|---------------12----13-12-------------------12-----13-12\10\8--8-10-------|
G|---12-12-14-------12-------------12-12-14-------12-------------------9-----|
D|---------------------------------------------------------------------------|
A|---------------------------------------------------------------------------|
E|---------------------------------------------------------------------------|

Near the end of the song, he plays around with the E minor pentatonic scale. He plays 
around the 9th fret of the G string, so just improvise using that as it isn't clear enough 
to work out exactly from the music video.
************************************

| /   slide up
| \   slide down
| h   hammer-on
| p   pull-off
| ~   vibrato
| +   harmonic
| x   Mute note
| b   Bend
| pb  Pre-bend
| br  Bend release
| pbr Pre-bend release
| brb Bend release bend

************************************
Tap to rate this tab
# A B C D E F G H I J K L M N O P Q R S T U V W X Y Z