Song name
# A B C D E F G H I J K L M N O P Q R S T U V W X Y Z

Example - Anything tab

This is the intro

e------------7---5-----------------5------------------7---5--------------|
B--------5-----------5---7-----5-------5----------5-----------5---7------|
G---7----------------------------------------7---------------------------|
D------------------------------------------------------------------------|
A------------------------------------------------------------------------|
E------------------------------------------------------------------------|

Chorus
e------------------------------------------------------------------------|
B------------------------------------------------------------------------|
G------------------------------------------------------------------------|
D-2---2--2-2-2-2-4--5---5--5-5-5-5--12---12--12-12-12-12--7---7--7-7-7-7-|
A-2---2--2-2-2-2-4--5---5--5-5-5-5--12---12--12-12-12-12--7---7--7-7-7-7-|
E-0---0--0-0-0-0-2--3---3--3-3-3-3--10---10--10-10-10-10--5---5--5-5-5-5-|
Tap to rate this tab
# A B C D E F G H I J K L M N O P Q R S T U V W X Y Z