Song name
# A B C D E F G H I J K L M N O P Q R S T U V W X Y Z

Example - Changed The Way You Kiss Me tab

Song: Changed The Way You Kiss Me
Artist: Example
Album: Playing In The Shadows (2011)
Tabbed by tmckee98

Tuning: Standard (EADGBe)

Pretty sure it's 100% accurate. Timing is semi-difficult to figure out. Good luck! ;)

e|----0---0---2---2---3---3---3---5---5---7----------------------|
B|---------------------------------------------------------------|
G|---------------------------------------------------------------|
D|--2---2---2---2---2--------------------------------------------|
A|----------------------3---3---3---5---5------------------------|
E|---------------------------------------------------------------|

e|----0---0---2---2---3---3---3---5---5---7----------------------|
B|---------------------------------------------------------------|
G|---------------------------------------------------------------|
D|---------------------------------------------------------------|
A|--0---0---0---0---0---3---3---3---5---5------------------------|
E|---------------------------------------------------------------|
Tap to rate this tab
 
# A B C D E F G H I J K L M N O P Q R S T U V W X Y Z