Song name
# A B C D E F G H I J K L M N O P Q R S T U V W X Y Z

Example - Shot Yourself In The Foot Again tab

-------------------------------------------------------------------------------
                             SHOT YOURSELF IN THE FOOT AGAIN - Example and Skream
-------------------------------------------------------------------------------
Tabbed by:JamesMidders
E-mail:

Tuning:standard
All in 16th notes (semiquavers), unless you don't want to play the droning G
 (17 on the D) on the bottom in which case they are 8th notes (quavers). The chord progression
(without the chromatics in the original, and in the same key as lying to yourself), is 
Cm-Bb-Ab-Fm-G (play an F instead of Fm if you want some melodic minor).

Please note I have the first note of each chord at the start of each bar,
 where in the original the note would be an octave down.
e|---------------------------------------------------------------------------|
B|--------------16----20----16----18----------16-----------------------------|
G|--17----17----------------------------17-----------------------------------|
D|-----17----17----17----17----17----17----17----17--------------------------|
A|---------------------------------------------------------------------------|
E|---------------------------------------------------------------------------|

e|---------------------------------------------------------------------------|
B|--------------16----20----16----18----------16-----------------------------|
G|--15----17----------------------------17-----------------------------------|
D|-----17----17----17----17----17----17----17----17--------------------------|
A|---------------------------------------------------------------------------|
E|---------------------------------------------------------------------------|

e|---------------------------------------------------------------------------|
B|--------------16----20----16----18----------16-----------------------------|
G|--------17----------------------------17-----------------------------------|
D|--18-17----17----17----17----17----17----17----17--------------------------|
A|---------------------------------------------------------------------------|
E|---------------------------------------------------------------------------|

e|---------------------------------------------------------------------------|
B|--------------16----20----------------16----20-----------------------------|
G|--------17----------------16----17-----------------------------------------|
D|--15-17----17----17----17----17----17----17----17--------------------------|
A|---------------------------------------------------------------------------|
E|---------------------------------------------------------------------------|

the drop is the chord progession in fast triplets. The 'wuh wuh' sound on the end of 
each bar is just
 the next 2 notes up from the root note of the chord in the Eb maj scale (C-D-Eb, Bb-C-D etc)

************************************

| /   slide up
| \   slide down
| h   hammer-on
| p   pull-off
| ~   vibrato
| +   harmonic
| x   Mute note
| b   Bend
| pb  Pre-bend
| br  Bend release
| pbr Pre-bend release
| brb Bend release bend

************************************
Tap to rate this tab
# A B C D E F G H I J K L M N O P Q R S T U V W X Y Z