Song name
# A B C D E F G H I J K L M N O P Q R S T U V W X Y Z

Example - All The Wrong Places tab

-------------------------------------------------------------------------------
                             All The Wrong Places - Example
-------------------------------------------------------------------------------
Tabbed by: JGloz

Tuning: Standard

Main Riff:

e|----------------------------------------------------------------------------------|
B|-----------------------------11-12-14----------------14---------------------------|
G|------4--4-4-4------4----8-8----------10-11-11-11-11----10-8-8-8--8-8-11-10-------|
D|--8-6-----------8-6---------------------------------------------------------------|
A|----------------------------------------------------------------------------------|
E|----------------------------------------------------------------------------------|



e|------------------------------------------------------------------11-11-14-13-----|
B|-----------------------------11-12-14----------------14---------------------------|
G|------4--4-4-4------4----8-8----------10-11-11-11-11----10-8-8-8------------------|
D|--8-6-----------8-6---------------------------------------------------------------|
A|----------------------------------------------------------------------------------|
E|----------------------------------------------------------------------------------|

Chorus Riff:

e|---------------------------------------------------------------------------|
B|---------------------------------------------------------------------------|
G|--8---9-6-6--8---9-8-6--8---9-6-6------------------------------------------|
D|----8----------8----------8------------------------------------------------|
A|---------------------------------------------------------------------------|
E|---------------------------------------------------------------------------|

Tap to rate this tab
 
# A B C D E F G H I J K L M N O P Q R S T U V W X Y Z