Guitaretab - guitar tabs
Song name
# A B C D E F G H I J K L M N O P Q R S T U V W X Y Z

Exhorder - Anal Lust tab

Anal Lust  Exhorder
Tabbed by: Cfhwarhead
Tuning: D Standard

Palm mute all open notes
			INTRO

e|---------------------------------------------------------------------------|
B|---------------------------------------------------------------------------|
G|---------------------------------------------------------------------------|
D|---------------------------------------------------------------------------|
A|---------------------------------------------------------------------------|
E|--0000000000000000000000000000000000000000000000000000000000000000000000---|
	Open until about 7seconds

e|---------------------------------------------------------------------------|
B|---------------------------------------------------------------------------|
G|-----------------------------------    -------------------------------    -|
D|----10\9-9\8-8/9-9/10-10\9--------- X4 -12\11----11\10----10\9-------- X4 -|
A|-----8\7-7\6-6/7-7/-8-8\7---------    -10\-9-----9\-8-----8\7--------    -|
E|---------------------------000000-------------00-------00------000000------|
		    

e|---------------------------------------------------------------------------|
B|---------------------------------------------------------------------------|
G|---------------------------------------------------------------------------|
D|-----10\9-9\8-8/9-9/10-10\9-9\8-8/9-9/10-10\9-9\8-8/9-9/10-9X---2----------|
A|------8-7-7-6-6-7-7-8---8-7-7-6-6/7-7--8--8-7-7-6-6-7-7--8-7X---2----------|
E|----------------------------------------------------------------0----------|

Guitar 1
e|---------------------------------------------------------------------------|
B|---------------------------------------------------------------------------|
G|---------------------------------------------------------------------------|
D|--979797979797979797979797------------------979797979797979797979797-------|
A|--777777777777777777777777------------------777777777777777777777777-------|
E|----------------------------6-5-3-5-6-5-0---------------------------------|
      ^Not too sure of That

Guitar 2
e|---------------------------------------------------------------------------|
B|---------------------------------------------------------------------------|
G|---------------------------------------------------------------------------|
D|--------------------------------------------2X-------2X-------2X-----------|
A|--------------------------------------------2X-------2X-------2X-----------|
E|--------------------------------------------0X-------0X-------0X-----------|
					whole note

	VERSE
Guitar 1	
e|---------------------------------------------------------------------------|
B|---------------------------------------------------------------------------|
G|------------------------------------------------------------------    -----|
D|--979797979797979797979797979797979797979797979797---------------- X4 -----|
A|--777777777777777777777777777777777777777777777777----------------    -----|
E|---------------------------------------------------65-3-5-6-5-0-----------|

Guitar 2				
e|---------------------------------------------------------------------------|
B|---------------------------------------------------------------------------|
G|-------------------------------------------------------------------    ----|
D|------------------------------------------------------------------- X4 ----|
A|-------------------------------------------------------------------    ----|
E|--000000000000000000000000000000000000000000000000-6-5-3-5-6-5-0----------|
		

				CHORUS	
		
Both
e|---------------------------------------------------------------------------|
B|---------------------------------------------------------------------------|
G|------------------------------------------------     ----------------------|
D|--9-----11/12-9------7/9-9-----11/12-9----12\7-  X2 ---------------2------|
A|--7------9/10-7------5/7-7------9/10-7----10\5--     ---8-----5-----2------|
E|----0000--------0000-------0000--------00---------------6-----3-----0------|

[ Tab from: http://www.guitaretab.com/e/exhorder/113306.html ]
Guitar 1	
e|---------------------------------------------------------------------------|
B|---------------------------------------------------------------------------|
G|------------------------------------------------------------------    -----|
D|--979797979797979797979797979797979797979797979797---------------- X4 -----|
A|--777777777777777777777777777777777777777777777777----------------    -----|
E|---------------------------------------------------65-3-5-6-5-0-----------|

Guitar 2				
e|---------------------------------------------------------------------------|
B|---------------------------------------------------------------------------|
G|-------------------------------------------------------------------    ----|
D|------------------------------------------------------------------- X4 ----|
A|-------------------------------------------------------------------    ----|
E|--000000000000000000000000000000000000000000000000-6-5-3-5-6-5-0----------|
		Palm mute
Both
e|---------------------------------------------------------------------------|
B|---------------------------------------------------------------------------|
G|------------------------------------------------    -----------------------|
D|--9-----11/12-9------7/9-9-----11/12-9----12\7- X2 ----------------2~~~~--|
A|--7------9/10-7------5/7-7------9/10-7----10\5--    ----8-----5-----2~~~~--|
E|----0000--------0000-------0000--------00---------------6-----3-----0~~~~--|

Guitar 1
e|---------------------------------------------------------------------------|
B|---------------------------------------------------------------------------|
G|-----------------------------------------------------------     -----------|
D|--9----11/12------------------9----11/12-------10~--10-----  X2 -----------|
A|--7-----9/10--------9h10------7-----9/10--------8~---8-----     -----------|
E|----000------0-3-00------0000---000------0-3-00----------------------------|


e|---------------------------------------------------------------------------|
B|---------------------------------------------------------------------------|
G|------------------------------------------------------------    -----------|
D|--2X--------------------------------------------3~----3~---- X2 -----------|
A|--2X--------------------------------------------3~----3~----    -----------|
E|--0X--------------------------------------------1~----1~-------------------|

Both
e|---------------------------------------------------------------------------|
B|---------------------------------------------------------------------------|
G|-----------------------------------------------------------     -----------|
D|--9----11/12------------------9----11/12-------10~--10-----  X4 -----------|
A|--7-----9/10--------9h10------7-----9/10--------8~---8-----     -----------|
E|----000------0-3-00------0000---000------0-3-00----------------------------|
	
Both
e|---------------------------------------------------------------------------|
B|---------------------------------------------------------------------------|
G|------------------------------------------------    -----------------------|
D|--9----11/12------------9----11/12-----10~-10--- X4 -----------------------|
A|--7-----9/10------------7-----9/10------8~--8---    -----------------------|
E|----000------0000000000---000------0300------------------------------------|
	

Guitar 1	
e|---------------------------------------------------------------------------|
B|---------------------------------------------------------------------------|
G|------------------------------------------------------------------    -----|
D|--979797979797979797979797979797979797979797979797---------------- X4 -----|
A|--777777777777777777777777777777777777777777777777----------------    -----|
E|---------------------------------------------------6-5-3-5-6-5-0----------|

Guitar 2				
e|---------------------------------------------------------------------------|
B|---------------------------------------------------------------------------|
G|-------------------------------------------------------------------    ----|
D|------------------------------------------------------------------- X4 ----|
A|-------------------------------------------------------------------    ----|
E|--000000000000000000000000000000000000000000000000-6-5-3-5-6-5-0----------|
		

e|-----------------|
B|-----------------|
G|-----------------|
D|--9--------------|
A|--7-----9h10\----|
E|----000----------|
	

| /  slide up
| \  slide down
| X  Mute/Stop/Staccato

Soon(Hopefully this month) I will also tab Incontinence.
Related for Anal Lust tab