Guitaretab - guitar tabs
Song name
# A B C D E F G H I J K L M N O P Q R S T U V W X Y Z

Exhumed - This Axe Was Made To Grind tab

Band: Exhumed 
Album: Slaughtercult 
Song: This Axe Was Made To Grind 



Code: 
. - palm mute           / - slide up to 
\ - slide down to       x  Staccato 
h - hammer on           p - pull off 
, - slight palm mute    () - ghost note, sustained note 
" - tremolo note        <> - Trill 
L  left channel only   R  right channel only 
* - see comment 

Suffixes for bend 
f - full bend       h - half bend 
q - quarter bend    t - tap bend 
^ - Hold bend       r - release bend 
~ - vibrato bend 

Suffixes for harmonic 
ph - pinched harmonic   n  natural/artificial harmonic 

Tuning B E A D F# B 

Intro (0:00) 
|----------------| 
|----------------| 
|----------------| 
|-3--6--5--3-----| 
|-1--4--3--3-----| 
|-1--4--3--1-----| 

Solo begins: (0:02) 

Riff 1 (0:02) play 8 times 
 [main]      [1, 3 etc]     [2, 6]      [4, 8] 
|-----------|----------|----------|----------| 
|-----------|----------|----------|----------| 
|-----------|----------|----------|----------| 
|-----------|-10-7-6-9-|-7-----6--|---3------| 
|-----------|-8--5-4-7-|-5--8--4--|-------4--| 
|-1"--0"----|----------|----6-----|-1---4----| 
                                    .   . 

Riff 2a (0:18) 
                [x3]          [x1] 
|--------------------|-----------|-----------| 
|--------------------|-----------|-----------| 
|--------------------|-----------|-----------| 
|-9----------10-7-6/-|-----3---6-|-----------| 
|-7----------8--5-4/-|---1-----4-|-----------| 
|---00000000---------|-0-----3---|-----------| 
[ Tab from: http://www.guitaretab.com/e/exhumed/101862.html ]
Riff 2b (0:22) 
                [x3]             [x1] 
|--------------------|---------------|-----------| 
|--------------------|---------------|-----------| 
|--------------------|---------------|-----------| 
|-9----------10-7-6/-|-7-7---6-------|-----------| 
|-7----------8--5-4/-|-5-5-8-4-4-3-2-|-----------| 
|---00000000---------|-----6---2-1-0-|-----------| 


Riff 2a x 1 (0:19) 
Riff 2b x 1 (0:23) 

Riff 3 (0:27) play 4 times 
|--------------------------------|------|------|--------------| 
|--------------------------------|------|------|--------------| 
|--------------------------------|------|------|--------------| 
|-------6----------------6-------|------|------|-3--6--5--3---| 
|---4-3-------3------4-3---5-4---|-3--6-|-6--3-|-1--4--3--1---| 
|-0-------1-0-1----0-----------0-|-1--4-|-4--1-|-1--4--3--1---| 

Riff 1 x 1 (0:44) 
Riff 2a x 1 (1:00 
Riff 2b x 1 (1:05) 
Riff 3 x 1 (1:09) 

Riff 4a (1:26) 
                  [x2]              [x2] 
|----------------------|----------------|-------|------| 
|----------------------|----------------|-------|------| 
|----------------------|----------------|-------|------| 
|----------------------|----------------|-------|------| 
|-----5---5------5---4-|-----8---8------|-8---7-|-8--7-| 
|-3-3---3----3-3---3---|-6-6---6----6-6-|---6---|------| 

Riff 4b (1:33) 
                  [x2]              [x2] 
|----------------------|-----------------------| 
|----------------------|-----------------------| 
|----------------------|-----------------------| 
|----------------------|-----------------------| 
|-----8---8------8---7-|-----8---8------8---7--| 
|-6-6---6----6-6---6---|-6-6---6----6-6---6----| 

                  [x2]              [x2] 
|----------------------|-----------------------| 
|----------------------|-----------------------| 
|----------------------|-----------------------| 
|----------------------|-----6---6------6---5--| 
|-----5---5------5---4-|-----------------------| 
|-3-3---3----3-3---3---|-6-6---6----6-6---6----| 

Solo begins (1:39) 
Riff 1 x 1 (1:39) 
Riff 2a x 1 (1:56) 
Riff 2b x 1 (2:00) 
Riff 3 x 1 (2:05) 

End 
|-----| 
|-----| 
|-----| 
|-----| 
|-2---| 
|-0---|




Related for This Axe Was Made To Grind tab