Guitaretab - guitar tabs
Song name
# A B C D E F G H I J K L M N O P Q R S T U V W X Y Z

Exhumed - Carnal Epitaph tab

Band: Exhumed
Album: Slaughtercult
Song: Carnal Epitaph

Code:
. - palm mute           / - slide up to
\ - slide down to       x  Staccato
h - hammer on           p - pull off
, - slight palm mute    () - ghost note, sustained note
" - tremolo note        <> - Trill
L  left channel only   R  right channel only
* - see comment

Suffixes for bend
f - full bend       h - half bend
q - quarter bend    t - tap bend
^ - Hold bend       r - release bend
~ - vibrato bend

Suffixes for harmonic
ph - pinched harmonic   n  natural/artificial harmonic

Tuning B E A D F# B

Intro (0:00)
|----------|
|----------|
|----------|
|-6--------|
|---3---6--|
|-----5----|

Riff 1 (0:01) play twice
|-----------------------------------------------------------------------------|
|-----------------------------------------------------------------------------|
|-----------------------------------------------------------------------------|
|-----------------------------------------------------------------------3-----|
|-5------5----5----5-------5----5----4------4----4----4-------4----4------111-|
|---2222---22---22---2-222---22---22---1111---11---11---1-111---11---11-------|
    ....   ..   ..   . ...   ..   ..   ....   ..   ..   . ...   ..   ..

------------------------------------------------------------------|
------------------------------------------------------------------|
------------------------------------------------------------------|
---4----4----4-------4----4----3------3----3----3-------3----3----|
-1---11---11---1-111---11---11---1111---11---11---1-111---11---11-|
------------------------------------------------------------------|
 .   ..   ..   . ...   ..   ..   ....   ..   ..   . ...   ..   ..

Intro x 1 (0:09)
Riff 1 x 1 (0:10)
Intro x 1 (0:18)

Riff 2 (0:19) play twice
|----------------------------------------------------------------------------|
|----------------------------------------------------------------------------|
|----------------------------------------------------------------------------|
|----------4---------------4---------------4---------------4---------------3-|
|-5------5--------5------5--------4------4--------4------4--------3------3---|
|---2222-----2222---2222-----2222---2222-----2222---2222-----2222---1111-----|
    ....     ....   ....     ....   ....     ....   ....     ....   ....
[ Tab from: http://www.guitaretab.com/e/exhumed/101863.html ]
----------------------------------------------|
----------------------------------------------|
----------------------------------------------|
---------------3------4------4------3------6--|
------3------3----------1111---1111---0000----|
-1111---1111-----1111-------------------------|
 ....   ....     ....   ....   ....   ....

Intro x 1 (0:27)
Riff 2 x 1 (0:27)
Intro x 1 (0:35)

Riff 3 (0:36) play twice
                    [x2]
|-----------------------|-----------------------------------------------|
|-----------------------|-----------------------------------------------|
|-----------------------|-----------------------------------------------|
|-----------------------|---------------5-----4-----------------5-------|
|-4-------2-4-5-5-2-4-5-|-4-------2-4-5-3-2-4-2-2--------5------3-5-2-5-|
|-2-2"----0-2-3-3-0-2-3-|-2-2"----0-2-3---0-2---0--0"----3--2-2---3-0-3-|
    .                       .                      .        . .

Riff 2 x 1 (1:01)
Intro x 1 (1:09)
Riff 2 x 1 (1:09)
Intro x 1 (1:17)

Riff 4 (1:18) play twice
|-------------------------|-------------|-----------|
|-------------------------|-------------|-----------|
|-------------------------|-------------|-----------|
|-7-----------3---7-------|-----3-----3-|-----------|
|-5---5---2---1---5---5---|-2---1-3-2-1-|-4---6--3--|
|-----3---0-------5---3---|-0-----1-0---|-2---4--1--|

Solo begins at (1:33)

Riff 5 (1:33) play twice
|---------------------------------------------------------------------------|
|---------------------------------------------------------------------------|
|---------------------------------------------------------------------------|
|---------------------------------------------------------------------------|
|-2-------------------------------------------------2-------------2---------|
|-0-0"----2-5-4-444-444-444-444-444-444-444-0-0-000---0-0-0-0-000---3-3-3-3-|
    .           ... ... ... ... ... ... ... . . ...   . . . . ...   . . . .

-------------------------|
-------------------------|
-------------------------|
-------------------------|
-5---------------5-------|
---3-3-3-3-3-3-3---3-3-3-|
   . . . . . . .   . . .
Riff 6 (1:48) play twice
            [x3]
|---------------|-------------|
|---------------|-------------|
|---------------|-------------|
|---3/5-5/6-----|-3-----5-----|
|-2-1/3-3/4-4\3-|-1-3-2-3-4-3-|
|-0---------2\1-|---1-0---2-1-|


Riff 3 x 1 (1:58)
Riff 2 x 1 (2:23)
Intro x 1 (2:38)
Riff 1 x 1 (2:39)
End.
Related for Carnal Epitaph tab