Guitaretab - guitar tabs
Song name
# A B C D E F G H I J K L M N O P Q R S T U V W X Y Z

Exhumed - Dinnertime In The Morgue tab

Band: Exhumed 
Album: Slaughtercult 
Song: Dinnertime In The Morgue 


Code: 
. - palm mute           / - slide up to 
\ - slide down to       x  Staccato 
h - hammer on           p - pull off 
, - slight palm mute    () - ghost note, sustained note 
" - tremolo note        <> - Trill 
L  left channel only   R  right channel only 
* - see comment 

Suffixes for bend 
f - full bend       h - half bend 
q - quarter bend    t - tap bend 
^ - Hold bend       r - release bend 
~ - vibrato bend 

Suffixes for harmonic 
ph - pinched harmonic   n  natural/artificial harmonic 

Tuning B E A D F# B 

Riff 1 (0:00) play 10 times 
|----------------| 
|----------------| 
|----------------| 
|-----------3/5--| 
|-5/6\5--2--1/3--| 
|-3/4\3--0-------| 

Riff 2a (0:10) 
|-----------------------------------------| 
|-----------------------------------------| 
|-----------------------------------------| 
|-3/5-------------------3/5---------------| 
|-1/3------2------5/6\3-1/3-5------2/3\2--| 
|-----0"---0-0000-3/4\1-----3-0"---0/1\0--| 
      .      ....             . 

Riff 2b (0:15) 
|----------------------------------------------| 
|----------------------------------------------| 
|----------------------------------------------| 
|-3/5------------------------------------------| 
|-1/3------2------5/6\3-2/3--3/5--5/6--5/6-5-3-| 
|-----0"---0-0000-3/4\1-0/1--1/3--3/4--3/4-3-1-| 
      .      ....             . 

Riff 2a x 1 (0:19) 
Riff 2b x 1 (0:23) 

Riff 3 (0:27) 

I 
|-------------------------------------------------------| 
|-------------------------------------------------------| 
|-------------------------------------------------------| 
|----5/6---6-----5/6---6-------5/6---6-----5/6---3/5----| 
|--------3---3-------3---3---------3---3----------------| 
|-0------------4-----------4-1-----------3-----1-----0--| 

II 
|---------------------------------------------| 
|---------------------------------------------| 
|---------------------------------------------| 
|----5/6---6-----5/6---6-------5/6---6-5--3---| 
|--------3---3-------3---3---------3---3--1---| 
|-0------------4-----------4-1----------------| 
[ Tab from: http://www.guitaretab.com/e/exhumed/101864.html ]
III 
|-------------------------------------------------------| 
|-------------------------------------------------------| 
|-------------------------------------------------------| 
|----5/6---6-----5/6---6-------5/6---6-----5/6---3/5----| gtr 1 
|--------3---3-------3---3---------3---3----------------| 
|-0------------4-----------4-1-----------3-----1-----0--| 

|-------------------------------------------------------| 
|-------------------------------------------------------| 
|-------------------------------------------------------| 
|-------------------------------------------------------| gtr 2 
|-2------------6-------------3-----------5-----3-----2--| 
|-0------------4-------------1-----------3-----1-----0--| 

IV 
|-------------------------------------------------------| 
|-------------------------------------------------------| 
|-------------------------------------------------------| 
|----5/6---6-----5/6---6-------5/6---6-----5/6---3/5----| gtr 1 
|--------3---3-------3---3---------3---3----------------| 
|-0------------4-----------4-1-----------3-----1-----0--| 

|-------------------------------------------------------| 
|-------------------------------------------------------| 
|-------------------------------------------------------| 
|------------------------------5/6---6------------------| gtr 2 
|-2------------6-------------3-----3---3-5-----3-----2--| 
|-0------------4-------------1-----------3-----1-----0--| 


Riff 2a x 1 (0:44) 
Riff 2b x 1 (0:48) 
Riff 2a x 1 (0:51) 
Riff 2b x 1 (0:56) 
Riff 3 x 1 (1:00) 

Riff 4a (1:16) 
|--------------------------------------------------------------| 
|--------------------------------------------------------------| 
|--------------------------------------------------------------| 
|---------------4-------------------4-------------4-5-5--5-8-8-| 
|-2-2--2-3-2--6-2-2--2--2--2-3-2--2-2-2--2-3-2--6-2-3-3--3-6-6-| 
|-0-0--0-1-0--4---0--0--0--0-1-0--4---0--0-1-0--4--------------| 

Riff 4b (1:22) 
|-----------------------------------------------------| 
|-----------------------------------------------------| 
|-----------------------------------------------------| 
|---------------4-------------------4-----------------| 
|-2-2--2-3-2--6-2-2--2--2--2-3-2--6-2-2--2-3-2--6--3--| 
|-0-0--0-1-0--4---0--0--0--0-1-0--4---0--0-1-0--4--1--| 

Solo begins: (1:26) 
Riff 4a x 1 (1:26) 
Riff 4b x 1 (1:31) 
Riff 2a x 1 (1:35) 
Riff 2b x 1 (1:39) 
Riff 2a x 1 (1:45) 
First part of Riff 2b x 1 (1:49) 
Drums (1:51) 
Riff 3III x 1 (1:53) 
Riff 3IV x 1 (1:58) 

End 
|---------| 
|---------| 
|---------| 
|-9--9----| 
|-7--7----| 
|-0--0----|




Related for Dinnertime In The Morgue tab