Guitaretab - guitar tabs
Song name
# A B C D E F G H I J K L M N O P Q R S T U V W X Y Z

Exhumed - Deep Red tab

Band: Exhumed 
Album: Slaughtercult 
Song: Deep Red 


Code: 
. - palm mute           / - slide up to 
\ - slide down to       x  Staccato 
h - hammer on           p - pull off 
, - slight palm mute    () - ghost note, sustained note 
" - tremolo note        <> - Trill 
L  left channel only   R  right channel only 
* - see comment 

Suffixes for bend 
f - full bend       h - half bend 
q - quarter bend    t - tap bend 
^ - Hold bend       r - release bend 
~ - vibrato bend 

Suffixes for harmonic 
ph - pinched harmonic   n  natural/artificial harmonic 

Tuning B E A D F# B 

Intro (0:00) 
|------------------------------------| 
|------------------------------------| 
|------------------------------------| 
|-10p7h10p7h8------------------------| 
|-------------5-3-2-------5h6p5p3h5--| 
|-------------------5-3-2------------| 
              . . . . . . 

Riff 1 (0:02) 
                                             [x4] 
|-------|----------------------------------------| 
|-------|----------------------------------------| 
|-------|----------------------------------------| 
|-------|-----------------4-3----3----1----1-3-4-| 
|-6-3-5-|----5-3-5-6----6---------------0"-------| 
|-4-1-3-|-3"---------3"-------1"---1"------------| 
                                   . 
[ Tab from: http://www.guitaretab.com/e/exhumed/101865.html ]
Riff 2 (0:18) play twice 
|---------------------------------------| 
|---------------------------------------| 
|---------------------------------------| 
|-----5-5-----------------------6----6--| 
|---------6-----6-6-4-----4-4-3---------| 
|-3"--------4"--------1"----------4"----| 

Riff 3 (0:27) play 4 times 
|---------------------| 
|---------------------| 
|---------------------| 
|---------------------| 
|-3--4-3-6-2---5--6---| 
|-1--2-1-4-0---3--4---| 

Riff 4 (0:43) 
                                              [x2] 
|-----------|------------------------------------| 
|-----------|------------------------------------| 
|-----------|------------------------------------| 
|-3---------|-----------------6----------4-3h4-3-| 
|-----------|-------6-----4--------4-------------| 
|---1"---0"-|-5-5-5---5-5---2---2"---2-2---------| 

Riff 1 x 1 (0:55) 
Riff 2 x 1 (1:07) 
Riff 3 x 1 (1:16) 
Riff 4 x 2 (1:33) 

Riff 5 (1:50) play 4 times 
|--------------------------------| 
|--------------------------------| 
|--------------------------------| 
|----8---8/11\10---11\10---11\8--| 
|----6-0-6/9-\8--0-9-\8--0-9-\6--| 
|-5"-----------------------------| 
       .         . 

Solo begins at (1:59) 
Riff 3 x 1 (1:59) 
Riff 1 x 1 (2:16) left guitar only, with some power chord chunks on right guitar 
Riff 3 x 1 (2:25) 
Riff 4 x 1 (2:42) 
Riff 5 x 1 (2:59) 
End




Related for Deep Red tab