Guitaretab - guitar tabs
Song name
# A B C D E F G H I J K L M N O P Q R S T U V W X Y Z

Exhumed - The Matter Of Splatter tab

-------------------------------------------------------------------------------
			THE MATTER OF SPLATTER - Exhumed
-------------------------------------------------------------------------------
Tabbed by:alex
Email:death_metal_god69@hotmail.com

so yeah this is my first time ever tabbing a song, but it sounds pretty accurate to me. enjoy \m/

Tuning: B E A D F# B

 Q=200
B |--------------------------------------------------------------------------|
F#|--------------------------------------------------------------------------|
D |---------------4----------------------------------------------------------|
A |--3---6-5------4----------------8-7-------------6-5-----------------------|
E |--3---4-3-6-5--2--------3-------6-5-8-7---------4-3-6-5-------------------|
B |--1-------4-3-----------11111111----6-5-11111111----4-3-------------------|

B |-------------------------------------------------------------------------|
F#|-------------------------------------------------------------------------|
D |-------------------------------------------------------------------------|
A |----------8-7---------4-5-8-7--------------------------------------------|
E |--3-------6-5-8-7-4-5-2-3-6-5-8-7----------------------------------------|
B |--11111111----6-5-2-3---------6-5----------------------------------------|

play this thing a few times
[ Tab from: http://www.guitaretab.com/e/exhumed/188456.html ]
then do this fill once
B |--------------------------------------------------------------------------|
F#|--------------------------------------------------------------------------|
D |-----------------------------------3--------------------------------------|
A |--3-----------5----4---------------3--------------------------------------|
E |--1-4---6-3---3----22222222222222221--------------------------------------|
B |----2---4-1---------------------------------------------------------------|

verse
Q=245
B |-------------------------------------------------------------------------|
F#|-------------------------------------------------------------------------|
D |--------------------------5----------------------------------------------|
A |---------------------------654-------------------------------------------|
E |------------------------------543----------------------------------------|
B |--112143131121431311214313-------4---------------------------------------|

repeat 4x, then 4x more with the lyrics

chorus
B |-------------------------------------------------------------------------|
F#|-------------------------------------------------------------------------|
D |-------------------------------------------------------------------------|
A |--3-----------5----4-----------------------------------------------------|
E |--1-4---6-3---3----2-2-2-2-2-2-2-2-2-2-2-2-------------------------------|
B |----2---4-1--------------------------------------------------------------|

B |--------------------------------------------------------------------------|
F#|--------------------------------------------------------------------------|
D |-----------------------------------3--------------------------------------|
A |--3-----------5----4---------------3--------------------------------------|
E |--1-4---6-3---3----22222222222222221--------------------------------------|
B |----2---4-1---------------------------------------------------------------|

then the verse, and then the chorus again

well thats all i have for right now........ill have the rest up ASAP
SEX DRINKS AND METAL!!!!!!!!!!!!!
Related for The Matter Of Splatter tab
Advertisement will be closed in 10 seconds