Song name
# A B C D E F G H I J K L M N O P Q R S T U V W X Y Z

Exies - Ugly tab

The Exies – Ugly

Transcribed and tabbed by: sychosisdragon@yahoo.com


This is the second song I’ve ever tabbed, and I think it’s 100% correct, I’ve tried the 
ones but they’re never 100%.

Tuning: Drop D Flat (Db, Ab, Db, Gb, Bb, Eb)


Legend:

* = Natural Harmonic
~ = Let Ring

Intro/Verse (Clean):
“...Are you ugly...” Kinda strum these chords.
Eb|--------------------------------|
Bb|-7--7-7-------------------------|
Gb|-6--6-6--6-6--6---6--6-6--4-4--4|  x5
Db|-4--4-4--6-6--6---7--7-7--4-4--4|
Ab|-4--4-4--4-4--4---5--5-5--2-2--2|
Db|---------4-4--4---7--7-7--2-2--2|

                                   |Use distortion now.
Eb|--------------------------------|------------|
Bb|-5--5-5--5-5--5---3--3-3-3------|------------|
Gb|-4--4-4--4-4--4---2--2-2-2------|------------|
Db|-2--2-2--2-2--2---0--0-0-0------|------------|
Ab|-2--2-2--2-2--2---0--0-0-0------|------------|
Db|--------------------------------|-*4-*4-*4-*4|
                                   |9s work, too.

Chorus (Distortion):
“...We are dirt..."
Eb|------------------------------------|
Bb|------------------------------------|
Gb|------------------------4--4-4-4-6--|
Db|-4--4---7--7---2-2-2-2--4--4-4-4-6--|
Ab|-4--4---7--7---2-2-2-2--2--2-2-2-4--|
Db|-4--4---7--7---2-2-2-2--------------|

Eb|---------------------------------------|
Bb|---------------------------------------|
Gb|---------------------------4--4-4-4----|
Db|-4--4---7--7---2--2--2--2--4--4-4-4-0--|
Ab|-4--4---7--7---2--2--2--2--2--2-2-2-0--|
Db|-4--4---7--7---2--2--2--2-----------0--|

Eb|-----------------------------------------|
Bb|-----------------------------------------|
Gb|--------------------------------------6~-|
Db|-4--4--4--4--7--7--7--7--7--7--7--7-7-6~-|
Ab|-4--4--4--4--7--7--7--7--5--5--5--5-5-4~-|
Db|-4--4--4--4--7--7--7--7--0--0--0--0-0----|


Two Guitars now.


Post-Chorus (Guitar 1, Distortion):
Eb|--------------------------------|
Bb|--------------------------------|
Gb|--------------------------------|  x2
Db|-4~---------------7~------------|
Ab|-4~---------------7~------------|
Db|-4~---------------7~------------|

Post-Chorus (Guitar 2, Distorion):
Eb|--------------------------------|
Bb|-7--7-7-------------------------|
Gb|-6--6-6--6-6--6---6--6-6--4-4--4|  x2
Db|-4--4-4--6-6--6---7--7-7--4-4--4|
Ab|-4--4-4--4-4--4---5--5-5--2-2--2|
Db|---------4-4--4---7--7-7--2-2--2|


Back to one guitar.


Verse (Clean):
"...Turn a blind eye..."
Eb|--------------------------------|
Bb|-7--7-7-------------------------|
Gb|-6--6-6--6-6--6---6--6-6--4-4--4|  x3
Db|-4--4-4--6-6--6---7--7-7--4-4--4|
Ab|-4--4-4--4-4--4---5--5-5--2-2--2|
Db|---------4-4--4---7--7-7--2-2--2|

                                   |Use distortion now.
Eb|--------------------------------|------------|
Bb|-5--5-5--5-5--5---3--3-3-3------|------------|
Gb|-4--4-4--4-4--4---2--2-2-2------|------------|
Db|-2--2-2--2-2--2---0--0-0-0------|------------|
Ab|-2--2-2--2-2--2---0--0-0-0------|------------|
Db|--------------------------------|-*4-*4-*4-*4|
                                   |9s work, too.

Chorus (Distortion):
“...We are dirt..."
Eb|------------------------------------|
Bb|------------------------------------|
Gb|------------------------4--4-4-4-6--|
Db|-4--4---7--7---2-2-2-2--4--4-4-4-6--|
Ab|-4--4---7--7---2-2-2-2--2--2-2-2-4--|
Db|-4--4---7--7---2-2-2-2--------------|

Eb|---------------------------------------|
Bb|---------------------------------------|
Gb|---------------------------4--4-4-4----|
Db|-4--4---7--7---2--2--2--2--4--4-4-4-0--|
Ab|-4--4---7--7---2--2--2--2--2--2-2-2-0--|
Db|-4--4---7--7---2--2--2--2-----------0--|

Eb|-------------------------------------------------|
Bb|-------------------------------------------------|
Gb|--------------------------------------4--4--4--4-|
Db|-4--4--4--4--7--7--7--7--2--2--2--2-2-4--4--4--4-|
Ab|-4--4--4--4--7--7--7--7--2--2--2--2-2-2--2--2--2-|
Db|-4--4--4--4--7--7--7--7--2--2--2--2-2------------|


Bridge (Distortion):
"I don't care..."
Eb|------------------------------------------------------|
Bb|------------------------------------------------------|
Gb|-----------------------------4--4--4--4-4--4--4-4-4---| x3
Db|-----------------------------4--4--4--4-4--4--4-4-4-3-|
Ab|-0--0--0--0-0--0--0--0--0-0--2--2--2--2-2--2--2-2-2-3-|
Db|-0--0--0--0-0--0--0--0--0-0-------------------------3-|

Eb|------------------------------------------------------------|Use distortion now.
Bb|---------------------------------------------|--------------|
Gb|------------------------------------------6~-|--------------|
Db|------------------------------------------6~-|--------------|
Ab|-0--0--0--0-0--0--0--0--0-0--2--2--2--2-2-4~-|--------------|
Db|-0--0--0--0-0--0--0--0--0-0--2--2--2--2-2----|-*4-*4-*4-*4--|
                                                |9s work, too.


Chorus (Distortion):
“…We are dirt…”
Eb|------------------------------------|
Bb|------------------------------------|
Gb|------------------------4--4-4-4-6--|
Db|-4--4---7--7---2-2-2-2--4--4-4-4-6--|
Ab|-4--4---7--7---2-2-2-2--2--2-2-2-4--|
Db|-4--4---7--7---2-2-2-2--------------|

Eb|---------------------------------------|
Bb|---------------------------------------|
Gb|---------------------------4--4-4-4----|
Db|-4--4---7--7---2--2--2--2--4--4-4-4-0--|
Ab|-4--4---7--7---2--2--2--2--2--2-2-2-0--|
Db|-4--4---7--7---2--2--2--2-----------0--|

Eb|-----------------------------------------|
Bb|-----------------------------------------|
Gb|--------------------------------------6~-|
Db|-4--4--4--4--7--7--7--7--7--7--7--7-7-6~-|
Ab|-4--4--4--4--7--7--7--7--5--5--5--5-5-4~-|
Db|-4--4--4--4--7--7--7--7--0--0--0--0-0----|


Two Guitars again.


Outro (Guitar 1, Distortion):             |After those 3, play this, let 0s ring out.
Eb|--------------------------------|      |--------------------------------|
Bb|--------------------------------|      |--------------------------------|
Gb|--------------------------------|  x3  |--------------------------------|
Db|-4~---------------7~------------|      |-4~---------------0~------------|
Ab|-4~---------------7~------------|      |-4~---------------0~------------|
Db|-4~---------------7~------------|      |-4~---------------0~------------|

Outro (Guitar 2, Distorion):
Eb|--------------------------------|
Bb|-7--7-7-------------------------|
Gb|-6--6-6--6-6--6---6--6-6--4-4--4|  x4
Db|-4--4-4--6-6--6---7--7-7--4-4--4|
Ab|-4--4-4--4-4--4---5--5-5--2-2--2|
Db|---------4-4--4---7--7-7--2-2--2|
Tap to rate this tab
# A B C D E F G H I J K L M N O P Q R S T U V W X Y Z