Song name
# A B C D E F G H I J K L M N O P Q R S T U V W X Y Z

Exies - What You Deserve tab

-------------------------------------------------------------------------------
			     What You Deserve - The Exies
-------------------------------------------------------------------------------

If you take this song slow, it isn't too bad.  Try to play along when you can.

Tuning: Standard

e|---------------------------------------------------------------------------|
B|--------------------------------------------------------------6------------|
G|-------------------------------------------6-----8-----9-------------------|
D|-----6--8-8-8-8-8-8-8--6--8-8-8-8-8-8-8-------8-----8-----8--------8-------|
A|---------------------------------------------------------------------------|
E|---------------------------------------------------------------------------|

e|---------------------------------9------------------------9----------------|
B|-----9--6--9--6----9--11-11-11------11-11-11--9--11-11-11----11-11-11------|
G|---------------------------------------------------------------------------|
D|---------------------------------------------------------------------------|
A|---------------------------------------------------------------------------|
E|---------------------------------------------------------------------------|

e|-----9------11-------12------13------13---16-------------------------------|
B|--------11------11-------11------11----------------------------------------|
G|---------------------------------------------------------------------------|
D|---------------------------------------------------------------------------|
A|---------------------------------------------------------------------------|
E|---------------------------------------------------------------------------|

e|-----12-11-9-11-9--12-11-9-11-9---9-8-6--------6-656-----------------------|
B|-----------------------------------------9------------9-7------------------|
G|---------------------------------------------------------------------------|
D|---------------------------------------------------------------------------|
A|---------------------------------------------------------------------------|
E|---------------------------------------------------------------------------|

From there, just go down.  

| /  slide up
| \  slide down
| h  hammer-on
| p  pull-off
| ~  vibrato
| +  harmonic
| x  Mute note
===============================================================================
Tap to rate this tab
 
# A B C D E F G H I J K L M N O P Q R S T U V W X Y Z