Song name
# A B C D E F G H I J K L M N O P Q R S T U V W X Y Z

Exies - Once In A Lifetime tab

Help us improve GuitareTab! Take a short survey!
verse acoustic x8
d(------------------------------------------)
a(------------------------------------------)
f(--------7-7----77-xx----------------------)
c(------0-7-7-00-77-xx-0-2-2/4-4-7-77-77-xx-)
g(------0-5-5-00-55-xx-0-2-2/4-4-4-44-44-xx-)
C(--4-6-0-----00----xx-0-2-2/4-4-4-44-44-xx-)

fill electric
d(-------------)
a(-------------)
f(--x-22222222-)
c(--x-22222222-)
g(--x-00000000-)
C(--x----------)

chorus electric x4      ending notes
d(-----0---0----0---0-)(--------5-)
a(-----3---3----3---3-)(------5---)
f(-----2---2-22-2-222-)(----7-----)
c(--00-0-000-22-0-220-)(--7-------)
g(--00---00--00---00--)(----------)
C(--00---00-----------)(----------)

bridge electric x6     last notes
d(--------------------)(-----------)
a(--------------------)(-----------)
f(--------------------)(-----------)
c(--0-0-0000-5-5-5555-)(--5-4-22-0-)
g(--0-0-0000-5-5-5555-)(--5-4-22-0-)
C(--0-0-0000-5-5-5555-)(--5-4-22-0-)

bridge (lead) x6
d(--------5----5---)
a(------5--------7-)
f(----7------------)
c(--7--------------)
g(-----------------)
C(-----------------)

last chord acoustic
d(--0-)
a(--3-)
f(--2-)
c(--0-)
g(--0-)
C(--0-)
Related for Once In A Lifetime tab